  0
SECTION
  2
HEADER
  9
$ACADVER
  1
AC1014
  9
$HANDSEED
  5
FFFF
  9
$INSUNITS
 70
     4
  9
$MEASUREMENT
 70
     1
  0
ENDSEC
  0
SECTION
  2
TABLES
  0
TABLE
  2
VPORT
  5
8
330
0
100
AcDbSymbolTable
 70
     4
  0
VPORT
  5
2E
330
8
100
AcDbSymbolTableRecord
100
AcDbViewportTableRecord
  2
*ACTIVE
 70
     0
 10
0.0
 20
0.0
 11
1.0
 21
1.0
 12
210.0
 22
148.5
 13
0.0
 23
0.0
 14
10.0
 24
10.0
 15
10.0
 25
10.0
 16
0.0
 26
0.0
 36
1.0
 17
0.0
 27
0.0
 37
0.0
 40
341.0
 41
1.24
 42
50.0
 43
0.0
 44
0.0
 50
0.0
 51
0.0
 71
     0
 72
   100
 73
     1
 74
     3
 75
     0
 76
     0
 77
     0
 78
     0
  0
ENDTAB
  0
TABLE
  2
LTYPE
  5
5
330
0
100
AcDbSymbolTable
 70
     1
  0
LTYPE
  5
14
330
5
100
AcDbSymbolTableRecord
100
AcDbLinetypeTableRecord
  2
BYBLOCK
 70
     0
  3

 72
    65
 73
     0
 40
0.0
  0
LTYPE
  5
15
330
5
100
AcDbSymbolTableRecord
100
AcDbLinetypeTableRecord
  2
BYLAYER
 70
     0
  3

 72
    65
 73
     0
 40
0.0
  0
LTYPE
  5
16
330
5
100
AcDbSymbolTableRecord
100
AcDbLinetypeTableRecord
  2
CONTINUOUS
 70
     0
  3
Solid line
 72
    65
 73
     0
 40
0.0
  0
ENDTAB
  0
TABLE
  2
LAYER
  5
2
100
AcDbSymbolTable
 70
2
  0
LAYER
  5
50
100
AcDbSymbolTableRecord
100
AcDbLayerTableRecord
  2
0
 70
0
  6
CONTINUOUS
  0
LAYER
  5
51
100
AcDbSymbolTableRecord
100
AcDbLayerTableRecord
  2
Layer_1
 70
0
  6
CONTINUOUS
  0
ENDTAB
  0
TABLE
  2
STYLE
  5
3
330
0
100
AcDbSymbolTable
 70
     1
  0
STYLE
  5
11
330
3
100
AcDbSymbolTableRecord
100
AcDbTextStyleTableRecord
  2
STANDARD
 70
     0
 40
0.0
 41
1.0
 50
0.0
 71
     0
 42
2.5
  3
txt
  4

  0
ENDTAB
  0
TABLE
  2
VIEW
  5
6
330
0
100
AcDbSymbolTable
 70
     0
  0
ENDTAB
  0
TABLE
  2
UCS
  5
7
330
0
100
AcDbSymbolTable
 70
     0
  0
ENDTAB
  0
TABLE
  2
APPID
  5
9
330
0
100
AcDbSymbolTable
 70
     2
  0
APPID
  5
12
330
9
100
AcDbSymbolTableRecord
100
AcDbRegAppTableRecord
  2
ACAD
 70
     0
  0
ENDTAB
  0
TABLE
  2
DIMSTYLE
  5
A
330
0
100
AcDbSymbolTable
 70
     1
  0
DIMSTYLE
105
27
330
A
100
AcDbSymbolTableRecord
100
AcDbDimStyleTableRecord
  2
ISO-25
 70
     0
  3

  4

  5

  6

  7

 40
1.0
 41
2.5
 42
0.625
 43
3.75
 44
1.25
 45
0.0
 46
0.0
 47
0.0
 48
0.0
140
2.5
141
2.5
142
0.0
143
0.03937007874016
144
1.0
145
0.0
146
1.0
147
0.625
 71
     0
 72
     0
 73
     0
 74
     0
 75
     0
 76
     0
 77
     1
 78
     8
170
     0
171
     3
172
     1
173
     0
174
     0
175
     0
176
     0
177
     0
178
     0
270
     2
271
     2
272
     2
273
     2
274
     3
340
11
275
     0
280
     0
281
     0
282
     0
283
     0
284
     8
285
     0
286
     0
287
     3
288
     0
  0
ENDTAB
  0
TABLE
  2
BLOCK_RECORD
  5
1
330
0
100
AcDbSymbolTable
 70
     1
  0
BLOCK_RECORD
  5
1F
330
1
100
AcDbSymbolTableRecord
100
AcDbBlockTableRecord
  2
*MODEL_SPACE
  0
BLOCK_RECORD
  5
1B
330
1
100
AcDbSymbolTableRecord
100
AcDbBlockTableRecord
  2
*PAPER_SPACE
  0
ENDTAB
  0
ENDSEC
  0
SECTION
  2
BLOCKS
  0
BLOCK
  5
20
330
1F
100
AcDbEntity
  8
0
100
AcDbBlockBegin
  2
*MODEL_SPACE
 70
     0
 10
0.0
 20
0.0
 30
0.0
  3
*MODEL_SPACE
  1

  0
ENDBLK
  5
21
330
1F
100
AcDbEntity
  8
0
100
AcDbBlockEnd
  0
BLOCK
  5
1C
330
1B
100
AcDbEntity
 67
     1
  8
0
100
AcDbBlockBegin
  2
*PAPER_SPACE
  1

  0
ENDBLK
  5
1D
330
1B
100
AcDbEntity
 67
     1
  8
0
100
AcDbBlockEnd
  0
ENDSEC
  0
SECTION
  2
ENTITIES
  0
SPLINE
  5
100
100
AcDbEntity
  8
Layer_1
 62
7
100
AcDbSpline
 70
8
 71
3
 72
8
 73
4
 74
0
 40
0
 40
0
 40
0
 40
0
 40
1
 40
1
 40
1
 40
1
 10
61.830477
 20
129.342380
 30
0.0
 10
62.176364
 20
129.342380
 30
0.0
 10
62.434746
 20
129.277613
 30
0.0
 10
62.605622
 20
129.148080
 30
0.0
  0
SPLINE
  5
101
100
AcDbEntity
  8
Layer_1
 62
7
100
AcDbSpline
 70
8
 71
3
 72
8
 73
4
 74
0
 40
0
 40
0
 40
0
 40
0
 40
1
 40
1
 40
1
 40
1
 10
62.605622
 20
129.148080
 30
0.0
 10
62.777877
 20
129.017167
 30
0.0
 10
62.864004
 20
128.822173
 30
0.0
 10
62.864004
 20
128.563100
 30
0.0
  0
SPLINE
  5
102
100
AcDbEntity
  8
Layer_1
 62
7
100
AcDbSpline
 70
8
 71
3
 72
8
 73
4
 74
0
 40
0
 40
0
 40
0
 40
0
 40
1
 40
1
 40
1
 40
1
 10
62.864004
 20
128.563100
 30
0.0
 10
62.864004
 20
128.367420
 30
0.0
 10
62.813017
 20
128.212393
 30
0.0
 10
62.711042
 20
128.098020
 30
0.0
  0
SPLINE
  5
103
100
AcDbEntity
  8
Layer_1
 62
7
100
AcDbSpline
 70
8
 71
3
 72
8
 73
4
 74
0
 40
0
 40
0
 40
0
 40
0
 40
1
 40
1
 40
1
 40
1
 10
62.711042
 20
128.098020
 30
0.0
 10
62.607689
 20
127.986400
 30
0.0
 10
62.458172
 20
127.921630
 30
0.0
 10
62.262491
 20
127.903710
 30
0.0
  0
SPLINE
  5
104
100
AcDbEntity
  8
Layer_1
 62
7
100
AcDbSpline
 70
8
 71
3
 72
8
 73
4
 74
0
 40
0
 40
0
 40
0
 40
0
 40
1
 40
1
 40
1
 40
1
 10
62.262491
 20
127.903710
 30
0.0
 10
62.498136
 20
127.881643
 30
0.0
 10
62.675903
 20
127.802407
 30
0.0
 10
62.795792
 20
127.666000
 30
0.0
  0
SPLINE
  5
105
100
AcDbEntity
  8
Layer_1
 62
7
100
AcDbSpline
 70
8
 71
3
 72
8
 73
4
 74
0
 40
0
 40
0
 40
0
 40
0
 40
1
 40
1
 40
1
 40
1
 10
62.795792
 20
127.666000
 30
0.0
 10
62.914303
 20
127.530953
 30
0.0
 10
62.973558
 20
127.341473
 30
0.0
 10
62.973558
 20
127.097560
 30
0.0
  0
SPLINE
  5
106
100
AcDbEntity
  8
Layer_1
 62
7
100
AcDbSpline
 70
8
 71
3
 72
8
 73
4
 74
0
 40
0
 40
0
 40
0
 40
0
 40
1
 40
1
 40
1
 40
1
 10
62.973558
 20
127.097560
 30
0.0
 10
62.973558
 20
126.801287
 30
0.0
 10
62.883986
 20
126.586313
 30
0.0
 10
62.704841
 20
126.452640
 30
0.0
  0
SPLINE
  5
107
100
AcDbEntity
  8
Layer_1
 62
7
100
AcDbSpline
 70
8
 71
3
 72
8
 73
4
 74
0
 40
0
 40
0
 40
0
 40
0
 40
1
 40
1
 40
1
 40
1
 10
62.704841
 20
126.452640
 30
0.0
 10
62.525696
 20
126.318973
 30
0.0
 10
62.234242
 20
126.252140
 30
0.0
 10
61.830477
 20
126.252140
 30
0.0
  0
LWPOLYLINE
  5
108
100
AcDbEntity
  8
Layer_1
 62
7
100
AcDbPolyline
 90
2
 70
0
 10
60.836223
 20
129.342380
 30
0.0
 10
61.830477
 20
129.342380
 30
0.0
  0
SPLINE
  5
109
100
AcDbEntity
  8
Layer_1
 62
7
100
AcDbSpline
 70
8
 71
3
 72
8
 73
4
 74
0
 40
0
 40
0
 40
0
 40
0
 40
1
 40
1
 40
1
 40
1
 10
61.830477
 20
128.139360
 30
0.0
 10
61.986195
 20
128.139360
 30
0.0
 10
62.096438
 20
128.167593
 30
0.0
 10
62.161206
 20
128.224060
 30
0.0
  0
SPLINE
  5
10a
100
AcDbEntity
  8
Layer_1
 62
7
100
AcDbSpline
 70
8
 71
3
 72
8
 73
4
 74
0
 40
0
 40
0
 40
0
 40
0
 40
1
 40
1
 40
1
 40
1
 10
62.161206
 20
128.224060
 30
0.0
 10
62.192899
 20
128.251593
 30
0.0
 10
62.217016
 20
128.286043
 30
0.0
 10
62.233556
 20
128.327410
 30
0.0
  0
SPLINE
  5
10b
100
AcDbEntity
  8
Layer_1
 62
7
100
AcDbSpline
 70
8
 71
3
 72
8
 73
4
 74
0
 40
0
 40
0
 40
0
 40
0
 40
1
 40
1
 40
1
 40
1
 10
62.233556
 20
128.327410
 30
0.0
 10
62.250089
 20
128.370143
 30
0.0
 10
62.258356
 20
128.425953
 30
0.0
 10
62.258356
 20
128.494840
 30
0.0
  0
SPLINE
  5
10c
100
AcDbEntity
  8
Layer_1
 62
7
100
AcDbSpline
 70
8
 71
3
 72
8
 73
4
 74
0
 40
0
 40
0
 40
0
 40
0
 40
1
 40
1
 40
1
 40
1
 10
62.258356
 20
128.494840
 30
0.0
 10
62.258356
 20
128.618867
 30
0.0
 10
62.225283
 20
128.710507
 30
0.0
 10
62.159136
 20
128.769760
 30
0.0
  0
SPLINE
  5
10d
100
AcDbEntity
  8
Layer_1
 62
7
100
AcDbSpline
 70
8
 71
3
 72
8
 73
4
 74
0
 40
0
 40
0
 40
0
 40
0
 40
1
 40
1
 40
1
 40
1
 10
62.159136
 20
128.769760
 30
0.0
 10
62.130196
 20
128.794560
 30
0.0
 10
62.090233
 20
128.815227
 30
0.0
 10
62.039247
 20
128.831760
 30
0.0
  0
SPLINE
  5
10e
100
AcDbEntity
  8
Layer_1
 62
7
100
AcDbSpline
 70
8
 71
3
 72
8
 73
4
 74
0
 40
0
 40
0
 40
0
 40
0
 40
1
 40
1
 40
1
 40
1
 10
62.039247
 20
128.831760
 30
0.0
 10
61.989640
 20
128.848293
 30
0.0
 10
61.920050
 20
128.856560
 30
0.0
 10
61.830475
 20
128.856560
 30
0.0
  0
LWPOLYLINE
  5
10f
100
AcDbEntity
  8
Layer_1
 62
7
100
AcDbPolyline
 90
3
 70
0
 10
61.830477
 20
126.252140
 30
0.0
 10
60.836223
 20
126.252140
 30
0.0
 10
60.836223
 20
129.342380
 30
0.0
  0
SPLINE
  5
110
100
AcDbEntity
  8
Layer_1
 62
7
100
AcDbSpline
 70
8
 71
3
 72
8
 73
4
 74
0
 40
0
 40
0
 40
0
 40
0
 40
1
 40
1
 40
1
 40
1
 10
61.830477
 20
126.739960
 30
0.0
 10
62.024780
 20
126.739960
 30
0.0
 10
62.161205
 20
126.773027
 30
0.0
 10
62.239754
 20
126.839160
 30
0.0
  0
SPLINE
  5
111
100
AcDbEntity
  8
Layer_1
 62
7
100
AcDbSpline
 70
8
 71
3
 72
8
 73
4
 74
0
 40
0
 40
0
 40
0
 40
0
 40
1
 40
1
 40
1
 40
1
 10
62.239754
 20
126.839160
 30
0.0
 10
62.316924
 20
126.905293
 30
0.0
 10
62.355509
 20
127.020360
 30
0.0
 10
62.355509
 20
127.184360
 30
0.0
  0
SPLINE
  5
112
100
AcDbEntity
  8
Layer_1
 62
7
100
AcDbSpline
 70
8
 71
3
 72
8
 73
4
 74
0
 40
0
 40
0
 40
0
 40
0
 40
1
 40
1
 40
1
 40
1
 10
62.355509
 20
127.184360
 30
0.0
 10
62.355509
 20
127.351100
 30
0.0
 10
62.314857
 20
127.470990
 30
0.0
 10
62.233552
 20
127.544030
 30
0.0
  0
SPLINE
  5
113
100
AcDbEntity
  8
Layer_1
 62
7
100
AcDbSpline
 70
8
 71
3
 72
8
 73
4
 74
0
 40
0
 40
0
 40
0
 40
0
 40
1
 40
1
 40
1
 40
1
 10
62.233552
 20
127.544030
 30
0.0
 10
62.152248
 20
127.617063
 30
0.0
 10
62.017890
 20
127.653580
 30
0.0
 10
61.830477
 20
127.653580
 30
0.0
  0
LWPOLYLINE
  5
114
100
AcDbEntity
  8
Layer_1
 62
7
100
AcDbPolyline
 90
4
 70
0
 10
61.830475
 20
128.856560
 30
0.0
 10
61.425332
 20
128.856560
 30
0.0
 10
61.425332
 20
128.139290
 30
0.0
 10
61.830477
 20
128.139360
 30
0.0
  0
LWPOLYLINE
  5
115
100
AcDbEntity
  8
Layer_1
 62
7
100
AcDbPolyline
 90
4
 70
0
 10
61.830477
 20
127.653580
 30
0.0
 10
61.425334
 20
127.653580
 30
0.0
 10
61.425334
 20
126.739940
 30
0.0
 10
61.830477
 20
126.739960
 30
0.0
  0
SPLINE
  5
116
100
AcDbEntity
  8
Layer_1
 62
7
100
AcDbSpline
 70
8
 71
3
 72
8
 73
4
 74
0
 40
0
 40
0
 40
0
 40
0
 40
1
 40
1
 40
1
 40
1
 10
63.537867
 20
125.836660
 30
0.0
 10
63.638464
 20
125.836660
 30
0.0
 10
63.719768
 20
125.840793
 30
0.0
 10
63.781779
 20
125.849060
 30
0.0
  0
SPLINE
  5
117
100
AcDbEntity
  8
Layer_1
 62
7
100
AcDbSpline
 70
8
 71
3
 72
8
 73
4
 74
0
 40
0
 40
0
 40
0
 40
0
 40
1
 40
1
 40
1
 40
1
 10
63.781779
 20
125.849060
 30
0.0
 10
63.843792
 20
125.855927
 30
0.0
 10
63.894091
 20
125.874527
 30
0.0
 10
63.932674
 20
125.904860
 30
0.0
  0
SPLINE
  5
118
100
AcDbEntity
  8
Layer_1
 62
7
100
AcDbSpline
 70
8
 71
3
 72
8
 73
4
 74
0
 40
0
 40
0
 40
0
 40
0
 40
1
 40
1
 40
1
 40
1
 10
63.932674
 20
125.904860
 30
0.0
 10
63.972641
 20
125.933793
 30
0.0
 10
64.008470
 20
125.980647
 30
0.0
 10
64.040161
 20
126.045420
 30
0.0
  0
SPLINE
  5
119
100
AcDbEntity
  8
Layer_1
 62
7
100
AcDbSpline
 70
8
 71
3
 72
8
 73
4
 74
0
 40
0
 40
0
 40
0
 40
0
 40
1
 40
1
 40
1
 40
1
 10
64.040161
 20
126.045420
 30
0.0
 10
64.071854
 20
126.110153
 30
0.0
 10
64.108372
 20
126.200413
 30
0.0
 10
64.149715
 20
126.316200
 30
0.0
  0
LWPOLYLINE
  5
11a
100
AcDbEntity
  8
Layer_1
 62
7
100
AcDbPolyline
 90
3
 70
0
 10
63.409707
 20
125.836660
 30
0.0
 10
63.475857
 20
125.836660
 30
0.0
 10
63.537867
 20
125.836660
 30
0.0
  0
SPLINE
  5
11b
100
AcDbEntity
  8
Layer_1
 62
7
100
AcDbSpline
 70
8
 71
3
 72
8
 73
4
 74
0
 40
0
 40
0
 40
0
 40
0
 40
1
 40
1
 40
1
 40
1
 10
64.616870
 20
126.002010
 30
0.0
 10
64.575530
 20
125.890390
 30
0.0
 10
64.524543
 20
125.787037
 30
0.0
 10
64.463908
 20
125.691950
 30
0.0
  0
SPLINE
  5
11c
100
AcDbEntity
  8
Layer_1
 62
7
100
AcDbSpline
 70
8
 71
3
 72
8
 73
4
 74
0
 40
0
 40
0
 40
0
 40
0
 40
1
 40
1
 40
1
 40
1
 10
64.463908
 20
125.691950
 30
0.0
 10
64.404655
 20
125.596870
 30
0.0
 10
64.330241
 20
125.520390
 30
0.0
 10
64.240666
 20
125.462510
 30
0.0
  0
SPLINE
  5
11d
100
AcDbEntity
  8
Layer_1
 62
7
100
AcDbSpline
 70
8
 71
3
 72
8
 73
4
 74
0
 40
0
 40
0
 40
0
 40
0
 40
1
 40
1
 40
1
 40
1
 10
64.240666
 20
125.462510
 30
0.0
 10
64.151093
 20
125.404643
 30
0.0
 10
64.040850
 20
125.375710
 30
0.0
 10
63.909937
 20
125.375710
 30
0.0
  0
LWPOLYLINE
  5
11e
100
AcDbEntity
  8
Layer_1
 62
7
100
AcDbPolyline
 90
7
 70
0
 10
64.149715
 20
126.316200
 30
0.0
 10
63.269149
 20
128.567230
 30
0.0
 10
63.905803
 20
128.567230
 30
0.0
 10
64.434969
 20
127.064480
 30
0.0
 10
64.941397
 20
128.567230
 30
0.0
 10
65.578050
 20
128.567230
 30
0.0
 10
64.616870
 20
126.002010
 30
0.0
  0
LWPOLYLINE
  5
11f
100
AcDbEntity
  8
Layer_1
 62
7
100
AcDbPolyline
 90
3
 70
0
 10
63.909937
 20
125.375710
 30
0.0
 10
63.409709
 20
125.375710
 30
0.0
 10
63.409707
 20
125.836660
 30
0.0
  0
LWPOLYLINE
  5
120
100
AcDbEntity
  8
Layer_1
 62
7
100
AcDbPolyline
 90
8
 70
1
 10
69.125116
 20
129.338250
 30
0.0
 10
69.871323
 20
129.338250
 30
0.0
 10
70.704347
 20
126.252140
 30
0.0
 10
70.094565
 20
126.252140
 30
0.0
 10
69.904396
 20
127.014880
 30
0.0
 10
69.087909
 20
127.014880
 30
0.0
 10
68.901874
 20
126.252140
 30
0.0
 10
68.292093
 20
126.252140
 30
0.0
  0
SPLINE
  5
121
100
AcDbEntity
  8
Layer_1
 62
7
100
AcDbSpline
 70
8
 71
3
 72
8
 73
4
 74
0
 40
0
 40
0
 40
0
 40
0
 40
1
 40
1
 40
1
 40
1
 10
71.773014
 20
126.192190
 30
0.0
 10
71.533236
 20
126.192190
 30
0.0
 10
71.338933
 20
126.260403
 30
0.0
 10
71.190105
 20
126.396830
 30
0.0
  0
SPLINE
  5
122
100
AcDbEntity
  8
Layer_1
 62
7
100
AcDbSpline
 70
8
 71
3
 72
8
 73
4
 74
0
 40
0
 40
0
 40
0
 40
0
 40
1
 40
1
 40
1
 40
1
 10
71.190105
 20
126.396830
 30
0.0
 10
71.042655
 20
126.534637
 30
0.0
 10
70.968930
 20
126.732387
 30
0.0
 10
70.968930
 20
126.990080
 30
0.0
  0
SPLINE
  5
123
100
AcDbEntity
  8
Layer_1
 62
7
100
AcDbSpline
 70
8
 71
3
 72
8
 73
4
 74
0
 40
0
 40
0
 40
0
 40
0
 40
1
 40
1
 40
1
 40
1
 10
70.968930
 20
126.990080
 30
0.0
 10
70.968930
 20
127.152687
 30
0.0
 10
70.997870
 20
127.284977
 30
0.0
 10
71.055750
 20
127.386950
 30
0.0
  0
SPLINE
  5
124
100
AcDbEntity
  8
Layer_1
 62
7
100
AcDbSpline
 70
8
 71
3
 72
8
 73
4
 74
0
 40
0
 40
0
 40
0
 40
0
 40
1
 40
1
 40
1
 40
1
 10
71.055750
 20
127.386950
 30
0.0
 10
71.115003
 20
127.490303
 30
0.0
 10
71.194929
 20
127.570230
 30
0.0
 10
71.295528
 20
127.626730
 30
0.0
  0
SPLINE
  5
125
100
AcDbEntity
  8
Layer_1
 62
7
100
AcDbSpline
 70
8
 71
3
 72
8
 73
4
 74
0
 40
0
 40
0
 40
0
 40
0
 40
1
 40
1
 40
1
 40
1
 10
71.295528
 20
127.626730
 30
0.0
 10
71.397503
 20
127.683197
 30
0.0
 10
71.512569
 20
127.721780
 30
0.0
 10
71.640727
 20
127.742480
 30
0.0
  0
SPLINE
  5
126
100
AcDbEntity
  8
Layer_1
 62
7
100
AcDbSpline
 70
8
 71
3
 72
8
 73
4
 74
0
 40
0
 40
0
 40
0
 40
0
 40
1
 40
1
 40
1
 40
1
 10
71.640727
 20
127.742480
 30
0.0
 10
71.768884
 20
127.764547
 30
0.0
 10
71.903243
 20
127.775580
 30
0.0
 10
72.043802
 20
127.775580
 30
0.0
  0
LWPOLYLINE
  5
127
100
AcDbEntity
  8
Layer_1
 62
7
100
AcDbPolyline
 90
3
 70
1
 10
69.786574
 20
127.517170
 30
0.0
 10
69.497186
 20
128.780150
 30
0.0
 10
69.209865
 20
127.517170
 30
0.0
  0
SPLINE
  5
128
100
AcDbEntity
  8
Layer_1
 62
7
100
AcDbSpline
 70
8
 71
3
 72
8
 73
4
 74
0
 40
0
 40
0
 40
0
 40
0
 40
1
 40
1
 40
1
 40
1
 10
72.463415
 20
127.876860
 30
0.0
 10
72.463415
 20
127.959547
 30
0.0
 10
72.441365
 20
128.022247
 30
0.0
 10
72.397265
 20
128.064960
 30
0.0
  0
SPLINE
  5
129
100
AcDbEntity
  8
Layer_1
 62
7
100
AcDbSpline
 70
8
 71
3
 72
8
 73
4
 74
0
 40
0
 40
0
 40
0
 40
0
 40
1
 40
1
 40
1
 40
1
 10
72.397265
 20
128.064960
 30
0.0
 10
72.354545
 20
128.107693
 30
0.0
 10
72.298734
 20
128.136627
 30
0.0
 10
72.229833
 20
128.151760
 30
0.0
  0
SPLINE
  5
12a
100
AcDbEntity
  8
Layer_1
 62
7
100
AcDbSpline
 70
8
 71
3
 72
8
 73
4
 74
0
 40
0
 40
0
 40
0
 40
0
 40
1
 40
1
 40
1
 40
1
 10
72.229833
 20
128.151760
 30
0.0
 10
72.162310
 20
128.166893
 30
0.0
 10
72.092719
 20
128.174460
 30
0.0
 10
72.021061
 20
128.174460
 30
0.0
  0
SPLINE
  5
12b
100
AcDbEntity
  8
Layer_1
 62
7
100
AcDbSpline
 70
8
 71
3
 72
8
 73
4
 74
0
 40
0
 40
0
 40
0
 40
0
 40
1
 40
1
 40
1
 40
1
 10
72.021061
 20
128.174460
 30
0.0
 10
71.874989
 20
128.174460
 30
0.0
 10
71.734429
 20
128.154493
 30
0.0
 10
71.599382
 20
128.114560
 30
0.0
  0
SPLINE
  5
12c
100
AcDbEntity
  8
Layer_1
 62
7
100
AcDbSpline
 70
8
 71
3
 72
8
 73
4
 74
0
 40
0
 40
0
 40
0
 40
0
 40
1
 40
1
 40
1
 40
1
 10
71.599382
 20
128.114560
 30
0.0
 10
71.465712
 20
128.074627
 30
0.0
 10
71.332042
 20
128.018127
 30
0.0
 10
71.198373
 20
127.945060
 30
0.0
  0
LWPOLYLINE
  5
12d
100
AcDbEntity
  8
Layer_1
 62
7
100
AcDbPolyline
 90
3
 70
0
 10
72.043802
 20
127.775580
 30
0.0
 10
72.463415
 20
127.775580
 30
0.0
 10
72.463415
 20
127.876860
 30
0.0
  0
SPLINE
  5
12e
100
AcDbEntity
  8
Layer_1
 62
7
100
AcDbSpline
 70
8
 71
3
 72
8
 73
4
 74
0
 40
0
 40
0
 40
0
 40
0
 40
1
 40
1
 40
1
 40
1
 10
71.198373
 20
128.461830
 30
0.0
 10
71.341689
 20
128.519697
 30
0.0
 10
71.483627
 20
128.561037
 30
0.0
 10
71.624186
 20
128.585850
 30
0.0
  0
SPLINE
  5
12f
100
AcDbEntity
  8
Layer_1
 62
7
100
AcDbSpline
 70
8
 71
3
 72
8
 73
4
 74
0
 40
0
 40
0
 40
0
 40
0
 40
1
 40
1
 40
1
 40
1
 10
71.624186
 20
128.585850
 30
0.0
 10
71.766124
 20
128.612050
 30
0.0
 10
71.909440
 20
128.625150
 30
0.0
 10
72.054134
 20
128.625150
 30
0.0
  0
SPLINE
  5
130
100
AcDbEntity
  8
Layer_1
 62
7
100
AcDbSpline
 70
8
 71
3
 72
8
 73
4
 74
0
 40
0
 40
0
 40
0
 40
0
 40
1
 40
1
 40
1
 40
1
 10
72.054134
 20
128.625150
 30
0.0
 10
72.307693
 20
128.625150
 30
0.0
 10
72.508197
 20
128.588630
 30
0.0
 10
72.655647
 20
128.515590
 30
0.0
  0
SPLINE
  5
131
100
AcDbEntity
  8
Layer_1
 62
7
100
AcDbSpline
 70
8
 71
3
 72
8
 73
4
 74
0
 40
0
 40
0
 40
0
 40
0
 40
1
 40
1
 40
1
 40
1
 10
72.655647
 20
128.515590
 30
0.0
 10
72.803097
 20
128.443937
 30
0.0
 10
72.907828
 20
128.332317
 30
0.0
 10
72.969839
 20
128.180730
 30
0.0
  0
SPLINE
  5
132
100
AcDbEntity
  8
Layer_1
 62
7
100
AcDbSpline
 70
8
 71
3
 72
8
 73
4
 74
0
 40
0
 40
0
 40
0
 40
0
 40
1
 40
1
 40
1
 40
1
 10
72.969839
 20
128.180730
 30
0.0
 10
73.033232
 20
128.030523
 30
0.0
 10
73.064929
 20
127.838977
 30
0.0
 10
73.064929
 20
127.606090
 30
0.0
  0
SPLINE
  5
133
100
AcDbEntity
  8
Layer_1
 62
7
100
AcDbSpline
 70
8
 71
3
 72
8
 73
4
 74
0
 40
0
 40
0
 40
0
 40
0
 40
1
 40
1
 40
1
 40
1
 10
73.064929
 20
127.606090
 30
0.0
 10
73.064929
 20
127.552357
 30
0.0
 10
73.063562
 20
127.483453
 30
0.0
 10
73.060829
 20
127.399380
 30
0.0
  0
SPLINE
  5
134
100
AcDbEntity
  8
Layer_1
 62
7
100
AcDbSpline
 70
8
 71
3
 72
8
 73
4
 74
0
 40
0
 40
0
 40
0
 40
0
 40
1
 40
1
 40
1
 40
1
 10
73.060829
 20
127.399380
 30
0.0
 10
73.059429
 20
127.315320
 30
0.0
 10
73.058729
 20
127.231260
 30
0.0
 10
73.058729
 20
127.147200
 30
0.0
  0
SPLINE
  5
135
100
AcDbEntity
  8
Layer_1
 62
7
100
AcDbSpline
 70
8
 71
3
 72
8
 73
4
 74
0
 40
0
 40
0
 40
0
 40
0
 40
1
 40
1
 40
1
 40
1
 10
73.058729
 20
127.147200
 30
0.0
 10
73.058729
 20
127.072787
 30
0.0
 10
73.058029
 20
127.002507
 30
0.0
 10
73.056629
 20
126.936360
 30
0.0
  0
SPLINE
  5
136
100
AcDbEntity
  8
Layer_1
 62
7
100
AcDbSpline
 70
8
 71
3
 72
8
 73
4
 74
0
 40
0
 40
0
 40
0
 40
0
 40
1
 40
1
 40
1
 40
1
 10
73.056629
 20
126.936360
 30
0.0
 10
73.055229
 20
126.870227
 30
0.0
 10
73.054529
 20
126.814417
 30
0.0
 10
73.054529
 20
126.768930
 30
0.0
  0
SPLINE
  5
137
100
AcDbEntity
  8
Layer_1
 62
7
100
AcDbSpline
 70
8
 71
3
 72
8
 73
4
 74
0
 40
0
 40
0
 40
0
 40
0
 40
1
 40
1
 40
1
 40
1
 10
73.054529
 20
126.768930
 30
0.0
 10
73.054529
 20
126.728997
 30
0.0
 10
73.056596
 20
126.676630
 30
0.0
 10
73.060729
 20
126.611830
 30
0.0
  0
SPLINE
  5
138
100
AcDbEntity
  8
Layer_1
 62
7
100
AcDbSpline
 70
8
 71
3
 72
8
 73
4
 74
0
 40
0
 40
0
 40
0
 40
0
 40
1
 40
1
 40
1
 40
1
 10
73.060729
 20
126.611830
 30
0.0
 10
73.064862
 20
126.548430
 30
0.0
 10
73.074509
 20
126.483663
 30
0.0
 10
73.089669
 20
126.417530
 30
0.0
  0
SPLINE
  5
139
100
AcDbEntity
  8
Layer_1
 62
7
100
AcDbSpline
 70
8
 71
3
 72
8
 73
4
 74
0
 40
0
 40
0
 40
0
 40
0
 40
1
 40
1
 40
1
 40
1
 10
73.089669
 20
126.417530
 30
0.0
 10
73.104829
 20
126.351397
 30
0.0
 10
73.128256
 20
126.296277
 30
0.0
 10
73.159949
 20
126.252170
 30
0.0
  0
LWPOLYLINE
  5
13a
100
AcDbEntity
  8
Layer_1
 62
7
100
AcDbPolyline
 90
2
 70
0
 10
71.198373
 20
127.945060
 30
0.0
 10
71.198373
 20
128.461830
 30
0.0
  0
SPLINE
  5
13b
100
AcDbEntity
  8
Layer_1
 62
7
100
AcDbSpline
 70
8
 71
3
 72
8
 73
4
 74
0
 40
0
 40
0
 40
0
 40
0
 40
1
 40
1
 40
1
 40
1
 10
72.560503
 20
126.252170
 30
0.0
 10
72.534323
 20
126.296237
 30
0.0
 10
72.515030
 20
126.337577
 30
0.0
 10
72.502623
 20
126.376190
 30
0.0
  0
SPLINE
  5
13c
100
AcDbEntity
  8
Layer_1
 62
7
100
AcDbSpline
 70
8
 71
3
 72
8
 73
4
 74
0
 40
0
 40
0
 40
0
 40
0
 40
1
 40
1
 40
1
 40
1
 10
72.502623
 20
126.376190
 30
0.0
 10
72.490223
 20
126.414790
 30
0.0
 10
72.481266
 20
126.459577
 30
0.0
 10
72.475753
 20
126.510550
 30
0.0
  0
SPLINE
  5
13d
100
AcDbEntity
  8
Layer_1
 62
7
100
AcDbSpline
 70
8
 71
3
 72
8
 73
4
 74
0
 40
0
 40
0
 40
0
 40
0
 40
1
 40
1
 40
1
 40
1
 10
72.475753
 20
126.510550
 30
0.0
 10
72.394449
 20
126.401683
 30
0.0
 10
72.292474
 20
126.321067
 30
0.0
 10
72.169829
 20
126.268700
 30
0.0
  0
SPLINE
  5
13e
100
AcDbEntity
  8
Layer_1
 62
7
100
AcDbSpline
 70
8
 71
3
 72
8
 73
4
 74
0
 40
0
 40
0
 40
0
 40
0
 40
1
 40
1
 40
1
 40
1
 10
72.169829
 20
126.268700
 30
0.0
 10
72.048562
 20
126.217700
 30
0.0
 10
71.916270
 20
126.192200
 30
0.0
 10
71.772954
 20
126.192200
 30
0.0
  0
LWPOLYLINE
  5
13f
100
AcDbEntity
  8
Layer_1
 62
7
100
AcDbPolyline
 90
2
 70
0
 10
73.159949
 20
126.252170
 30
0.0
 10
72.560503
 20
126.252170
 30
0.0
  0
SPLINE
  5
140
100
AcDbEntity
  8
Layer_1
 62
7
100
AcDbSpline
 70
8
 71
3
 72
8
 73
4
 74
0
 40
0
 40
0
 40
0
 40
0
 40
1
 40
1
 40
1
 40
1
 10
71.971452
 20
126.611800
 30
0.0
 10
72.098231
 20
126.611800
 30
0.0
 10
72.196761
 20
126.646253
 30
0.0
 10
72.267040
 20
126.715160
 30
0.0
  0
SPLINE
  5
141
100
AcDbEntity
  8
Layer_1
 62
7
100
AcDbSpline
 70
8
 71
3
 72
8
 73
4
 74
0
 40
0
 40
0
 40
0
 40
0
 40
1
 40
1
 40
1
 40
1
 10
72.267040
 20
126.715160
 30
0.0
 10
72.338698
 20
126.785440
 30
0.0
 10
72.388997
 20
126.872943
 30
0.0
 10
72.417936
 20
126.977670
 30
0.0
  0
SPLINE
  5
142
100
AcDbEntity
  8
Layer_1
 62
7
100
AcDbSpline
 70
8
 71
3
 72
8
 73
4
 74
0
 40
0
 40
0
 40
0
 40
0
 40
1
 40
1
 40
1
 40
1
 10
72.417936
 20
126.977670
 30
0.0
 10
72.448249
 20
127.083783
 30
0.0
 10
72.463406
 20
127.190583
 30
0.0
 10
72.463406
 20
127.298070
 30
0.0
  0
LWPOLYLINE
  5
143
100
AcDbEntity
  8
Layer_1
 62
7
100
AcDbPolyline
 90
1
 70
1
 10
71.772954
 20
126.192200
 30
0.0
  0
SPLINE
  5
144
100
AcDbEntity
  8
Layer_1
 62
7
100
AcDbSpline
 70
8
 71
3
 72
8
 73
4
 74
0
 40
0
 40
0
 40
0
 40
0
 40
1
 40
1
 40
1
 40
1
 10
72.221560
 20
127.339370
 30
0.0
 10
72.126475
 20
127.339370
 30
0.0
 10
72.032080
 20
127.332470
 30
0.0
 10
71.938374
 20
127.318670
 30
0.0
  0
SPLINE
  5
145
100
AcDbEntity
  8
Layer_1
 62
7
100
AcDbSpline
 70
8
 71
3
 72
8
 73
4
 74
0
 40
0
 40
0
 40
0
 40
0
 40
1
 40
1
 40
1
 40
1
 10
71.938374
 20
127.318670
 30
0.0
 10
71.844667
 20
127.306270
 30
0.0
 10
71.766808
 20
127.273903
 30
0.0
 10
71.704796
 20
127.221570
 30
0.0
  0
SPLINE
  5
146
100
AcDbEntity
  8
Layer_1
 62
7
100
AcDbSpline
 70
8
 71
3
 72
8
 73
4
 74
0
 40
0
 40
0
 40
0
 40
0
 40
1
 40
1
 40
1
 40
1
 10
71.704796
 20
127.221570
 30
0.0
 10
71.644163
 20
127.170570
 30
0.0
 10
71.613846
 20
127.085820
 30
0.0
 10
71.613846
 20
126.967320
 30
0.0
  0
SPLINE
  5
147
100
AcDbEntity
  8
Layer_1
 62
7
100
AcDbSpline
 70
8
 71
3
 72
8
 73
4
 74
0
 40
0
 40
0
 40
0
 40
0
 40
1
 40
1
 40
1
 40
1
 10
71.613846
 20
126.967320
 30
0.0
 10
71.613846
 20
126.854320
 30
0.0
 10
71.644853
 20
126.766813
 30
0.0
 10
71.706866
 20
126.704800
 30
0.0
  0
SPLINE
  5
148
100
AcDbEntity
  8
Layer_1
 62
7
100
AcDbSpline
 70
8
 71
3
 72
8
 73
4
 74
0
 40
0
 40
0
 40
0
 40
0
 40
1
 40
1
 40
1
 40
1
 10
71.706866
 20
126.704800
 30
0.0
 10
71.770253
 20
126.642800
 30
0.0
 10
71.858447
 20
126.611800
 30
0.0
 10
71.971450
 20
126.611800
 30
0.0
  0
LWPOLYLINE
  5
149
100
AcDbEntity
  8
Layer_1
 62
7
100
AcDbPolyline
 90
3
 70
0
 10
72.463406
 20
127.298070
 30
0.0
 10
72.463406
 20
127.339370
 30
0.0
 10
72.221560
 20
127.339370
 30
0.0
  0
LWPOLYLINE
  5
14a
100
AcDbEntity
  8
Layer_1
 62
7
100
AcDbPolyline
 90
1
 70
1
 10
71.971450
 20
126.611800
 30
0.0
  0
SPLINE
  5
14b
100
AcDbEntity
  8
Layer_1
 62
7
100
AcDbSpline
 70
8
 71
3
 72
8
 73
4
 74
0
 40
0
 40
0
 40
0
 40
0
 40
1
 40
1
 40
1
 40
1
 10
74.425042
 20
128.207570
 30
0.0
 10
74.484295
 20
128.338483
 30
0.0
 10
74.574557
 20
128.440460
 30
0.0
 10
74.695827
 20
128.513500
 30
0.0
  0
SPLINE
  5
14c
100
AcDbEntity
  8
Layer_1
 62
7
100
AcDbSpline
 70
8
 71
3
 72
8
 73
4
 74
0
 40
0
 40
0
 40
0
 40
0
 40
1
 40
1
 40
1
 40
1
 10
74.695827
 20
128.513500
 30
0.0
 10
74.818472
 20
128.586533
 30
0.0
 10
74.961788
 20
128.623050
 30
0.0
 10
75.125774
 20
128.623050
 30
0.0
  0
SPLINE
  5
14d
100
AcDbEntity
  8
Layer_1
 62
7
100
AcDbSpline
 70
8
 71
3
 72
8
 73
4
 74
0
 40
0
 40
0
 40
0
 40
0
 40
1
 40
1
 40
1
 40
1
 10
75.125774
 20
128.623050
 30
0.0
 10
75.295273
 20
128.623050
 30
0.0
 10
75.452369
 20
128.583777
 30
0.0
 10
75.597063
 20
128.505230
 30
0.0
  0
LWPOLYLINE
  5
14e
100
AcDbEntity
  8
Layer_1
 62
7
100
AcDbPolyline
 90
3
 70
0
 10
73.819399
 20
128.567240
 30
0.0
 10
74.365102
 20
128.567240
 30
0.0
 10
74.425042
 20
128.207570
 30
0.0
  0
SPLINE
  5
14f
100
AcDbEntity
  8
Layer_1
 62
7
100
AcDbSpline
 70
8
 71
3
 72
8
 73
4
 74
0
 40
0
 40
0
 40
0
 40
0
 40
1
 40
1
 40
1
 40
1
 10
75.597063
 20
127.928520
 30
0.0
 10
75.463393
 20
128.049787
 30
0.0
 10
75.288382
 20
128.110420
 30
0.0
 10
75.072031
 20
128.110420
 30
0.0
  0
SPLINE
  5
150
100
AcDbEntity
  8
Layer_1
 62
7
100
AcDbSpline
 70
8
 71
3
 72
8
 73
4
 74
0
 40
0
 40
0
 40
0
 40
0
 40
1
 40
1
 40
1
 40
1
 10
75.072031
 20
128.110420
 30
0.0
 10
74.897020
 20
128.110420
 30
0.0
 10
74.755082
 20
128.070457
 30
0.0
 10
74.646217
 20
127.990530
 30
0.0
  0
SPLINE
  5
151
100
AcDbEntity
  8
Layer_1
 62
7
100
AcDbSpline
 70
8
 71
3
 72
8
 73
4
 74
0
 40
0
 40
0
 40
0
 40
0
 40
1
 40
1
 40
1
 40
1
 10
74.646217
 20
127.990530
 30
0.0
 10
74.537352
 20
127.910603
 30
0.0
 10
74.469829
 20
127.795537
 30
0.0
 10
74.443646
 20
127.645330
 30
0.0
  0
SPLINE
  5
152
100
AcDbEntity
  8
Layer_1
 62
7
100
AcDbSpline
 70
8
 71
3
 72
8
 73
4
 74
0
 40
0
 40
0
 40
0
 40
0
 40
1
 40
1
 40
1
 40
1
 10
74.443646
 20
127.645330
 30
0.0
 10
74.436753
 20
127.609530
 30
0.0
 10
74.431929
 20
127.566123
 30
0.0
 10
74.429176
 20
127.515110
 30
0.0
  0
SPLINE
  5
153
100
AcDbEntity
  8
Layer_1
 62
7
100
AcDbSpline
 70
8
 71
3
 72
8
 73
4
 74
0
 40
0
 40
0
 40
0
 40
0
 40
1
 40
1
 40
1
 40
1
 10
74.429176
 20
127.515110
 30
0.0
 10
74.426443
 20
127.464110
 30
0.0
 10
74.425076
 20
127.398653
 30
0.0
 10
74.425076
 20
127.318740
 30
0.0
  0
LWPOLYLINE
  5
154
100
AcDbEntity
  8
Layer_1
 62
7
100
AcDbPolyline
 90
2
 70
0
 10
75.597063
 20
128.505230
 30
0.0
 10
75.597063
 20
127.928520
 30
0.0
  0
SPLINE
  5
155
100
AcDbEntity
  8
Layer_1
 62
7
100
AcDbSpline
 70
8
 71
3
 72
8
 73
4
 74
0
 40
0
 40
0
 40
0
 40
0
 40
1
 40
1
 40
1
 40
1
 10
77.143225
 20
126.192190
 30
0.0
 10
76.924117
 20
126.192190
 30
0.0
 10
76.733948
 20
126.241110
 30
0.0
 10
76.572718
 20
126.338950
 30
0.0
  0
SPLINE
  5
156
100
AcDbEntity
  8
Layer_1
 62
7
100
AcDbSpline
 70
8
 71
3
 72
8
 73
4
 74
0
 40
0
 40
0
 40
0
 40
0
 40
1
 40
1
 40
1
 40
1
 10
76.572718
 20
126.338950
 30
0.0
 10
76.412865
 20
126.438170
 30
0.0
 10
76.289531
 20
126.578730
 30
0.0
 10
76.202715
 20
126.760630
 30
0.0
  0
SPLINE
  5
157
100
AcDbEntity
  8
Layer_1
 62
7
100
AcDbSpline
 70
8
 71
3
 72
8
 73
4
 74
0
 40
0
 40
0
 40
0
 40
0
 40
1
 40
1
 40
1
 40
1
 10
76.202715
 20
126.760630
 30
0.0
 10
76.115898
 20
126.942530
 30
0.0
 10
76.072490
 20
127.157503
 30
0.0
 10
76.072490
 20
127.405550
 30
0.0
  0
SPLINE
  5
158
100
AcDbEntity
  8
Layer_1
 62
7
100
AcDbSpline
 70
8
 71
3
 72
8
 73
4
 74
0
 40
0
 40
0
 40
0
 40
0
 40
1
 40
1
 40
1
 40
1
 10
76.072490
 20
127.405550
 30
0.0
 10
76.072490
 20
127.653597
 30
0.0
 10
76.115898
 20
127.868570
 30
0.0
 10
76.202715
 20
128.050470
 30
0.0
  0
SPLINE
  5
159
100
AcDbEntity
  8
Layer_1
 62
7
100
AcDbSpline
 70
8
 71
3
 72
8
 73
4
 74
0
 40
0
 40
0
 40
0
 40
0
 40
1
 40
1
 40
1
 40
1
 10
76.202715
 20
128.050470
 30
0.0
 10
76.290909
 20
128.233750
 30
0.0
 10
76.415621
 20
128.375000
 30
0.0
 10
76.576852
 20
128.474220
 30
0.0
  0
SPLINE
  5
15a
100
AcDbEntity
  8
Layer_1
 62
7
100
AcDbSpline
 70
8
 71
3
 72
8
 73
4
 74
0
 40
0
 40
0
 40
0
 40
0
 40
1
 40
1
 40
1
 40
1
 10
76.576852
 20
128.474220
 30
0.0
 10
76.739461
 20
128.573440
 30
0.0
 10
76.931697
 20
128.623050
 30
0.0
 10
77.153560
 20
128.623050
 30
0.0
  0
SPLINE
  5
15b
100
AcDbEntity
  8
Layer_1
 62
7
100
AcDbSpline
 70
8
 71
3
 72
8
 73
4
 74
0
 40
0
 40
0
 40
0
 40
0
 40
1
 40
1
 40
1
 40
1
 10
77.153560
 20
128.623050
 30
0.0
 10
77.372668
 20
128.623050
 30
0.0
 10
77.561459
 20
128.574130
 30
0.0
 10
77.719934
 20
128.476290
 30
0.0
  0
SPLINE
  5
15c
100
AcDbEntity
  8
Layer_1
 62
7
100
AcDbSpline
 70
8
 71
3
 72
8
 73
4
 74
0
 40
0
 40
0
 40
0
 40
0
 40
1
 40
1
 40
1
 40
1
 10
77.719934
 20
128.476290
 30
0.0
 10
77.878408
 20
128.379823
 30
0.0
 10
78.000364
 20
128.241330
 30
0.0
 10
78.085803
 20
128.060810
 30
0.0
  0
SPLINE
  5
15d
100
AcDbEntity
  8
Layer_1
 62
7
100
AcDbSpline
 70
8
 71
3
 72
8
 73
4
 74
0
 40
0
 40
0
 40
0
 40
0
 40
1
 40
1
 40
1
 40
1
 10
78.085803
 20
128.060810
 30
0.0
 10
78.172619
 20
127.880290
 30
0.0
 10
78.216027
 20
127.666007
 30
0.0
 10
78.216027
 20
127.417960
 30
0.0
  0
SPLINE
  5
15e
100
AcDbEntity
  8
Layer_1
 62
7
100
AcDbSpline
 70
8
 71
3
 72
8
 73
4
 74
0
 40
0
 40
0
 40
0
 40
0
 40
1
 40
1
 40
1
 40
1
 10
78.216027
 20
127.417960
 30
0.0
 10
78.216027
 20
127.165773
 30
0.0
 10
78.171930
 20
126.948043
 30
0.0
 10
78.083735
 20
126.764770
 30
0.0
  0
SPLINE
  5
15f
100
AcDbEntity
  8
Layer_1
 62
7
100
AcDbSpline
 70
8
 71
3
 72
8
 73
4
 74
0
 40
0
 40
0
 40
0
 40
0
 40
1
 40
1
 40
1
 40
1
 10
78.083735
 20
126.764770
 30
0.0
 10
77.996919
 20
126.581490
 30
0.0
 10
77.873585
 20
126.440240
 30
0.0
 10
77.713733
 20
126.341020
 30
0.0
  0
SPLINE
  5
160
100
AcDbEntity
  8
Layer_1
 62
7
100
AcDbSpline
 70
8
 71
3
 72
8
 73
4
 74
0
 40
0
 40
0
 40
0
 40
0
 40
1
 40
1
 40
1
 40
1
 10
77.713733
 20
126.341020
 30
0.0
 10
77.553880
 20
126.241800
 30
0.0
 10
77.363711
 20
126.192190
 30
0.0
 10
77.143225
 20
126.192190
 30
0.0
  0
LWPOLYLINE
  5
161
100
AcDbEntity
  8
Layer_1
 62
7
100
AcDbPolyline
 90
4
 70
0
 10
74.425076
 20
127.318740
 30
0.0
 10
74.425076
 20
126.252140
 30
0.0
 10
73.819429
 20
126.252140
 30
0.0
 10
73.819399
 20
128.567240
 30
0.0
  0
SPLINE
  5
162
100
AcDbEntity
  8
Layer_1
 62
7
100
AcDbSpline
 70
8
 71
3
 72
8
 73
4
 74
0
 40
0
 40
0
 40
0
 40
0
 40
1
 40
1
 40
1
 40
1
 10
77.145325
 20
126.684150
 30
0.0
 10
77.287263
 20
126.684150
 30
0.0
 10
77.400262
 20
126.748917
 30
0.0
 10
77.484322
 20
126.878450
 30
0.0
  0
SPLINE
  5
163
100
AcDbEntity
  8
Layer_1
 62
7
100
AcDbSpline
 70
8
 71
3
 72
8
 73
4
 74
0
 40
0
 40
0
 40
0
 40
0
 40
1
 40
1
 40
1
 40
1
 10
77.484322
 20
126.878450
 30
0.0
 10
77.568383
 20
127.009363
 30
0.0
 10
77.610413
 20
127.185753
 30
0.0
 10
77.610413
 20
127.407620
 30
0.0
  0
SPLINE
  5
164
100
AcDbEntity
  8
Layer_1
 62
7
100
AcDbSpline
 70
8
 71
3
 72
8
 73
4
 74
0
 40
0
 40
0
 40
0
 40
0
 40
1
 40
1
 40
1
 40
1
 10
77.610413
 20
127.407620
 30
0.0
 10
77.610413
 20
127.630860
 30
0.0
 10
77.568383
 20
127.807250
 30
0.0
 10
77.484322
 20
127.936790
 30
0.0
  0
SPLINE
  5
165
100
AcDbEntity
  8
Layer_1
 62
7
100
AcDbSpline
 70
8
 71
3
 72
8
 73
4
 74
0
 40
0
 40
0
 40
0
 40
0
 40
1
 40
1
 40
1
 40
1
 10
77.484322
 20
127.936790
 30
0.0
 10
77.400262
 20
128.066323
 30
0.0
 10
77.287263
 20
128.131090
 30
0.0
 10
77.145325
 20
128.131090
 30
0.0
  0
SPLINE
  5
166
100
AcDbEntity
  8
Layer_1
 62
7
100
AcDbSpline
 70
8
 71
3
 72
8
 73
4
 74
0
 40
0
 40
0
 40
0
 40
0
 40
1
 40
1
 40
1
 40
1
 10
77.145325
 20
128.131090
 30
0.0
 10
77.002009
 20
128.131090
 30
0.0
 10
76.888321
 20
128.065633
 30
0.0
 10
76.804261
 20
127.934720
 30
0.0
  0
SPLINE
  5
167
100
AcDbEntity
  8
Layer_1
 62
7
100
AcDbSpline
 70
8
 71
3
 72
8
 73
4
 74
0
 40
0
 40
0
 40
0
 40
0
 40
1
 40
1
 40
1
 40
1
 10
76.804261
 20
127.934720
 30
0.0
 10
76.720201
 20
127.805187
 30
0.0
 10
76.678171
 20
127.629487
 30
0.0
 10
76.678171
 20
127.407620
 30
0.0
  0
SPLINE
  5
168
100
AcDbEntity
  8
Layer_1
 62
7
100
AcDbSpline
 70
8
 71
3
 72
8
 73
4
 74
0
 40
0
 40
0
 40
0
 40
0
 40
1
 40
1
 40
1
 40
1
 10
76.678171
 20
127.407620
 30
0.0
 10
76.678171
 20
127.185753
 30
0.0
 10
76.720201
 20
127.009363
 30
0.0
 10
76.804261
 20
126.878450
 30
0.0
  0
SPLINE
  5
169
100
AcDbEntity
  8
Layer_1
 62
7
100
AcDbSpline
 70
8
 71
3
 72
8
 73
4
 74
0
 40
0
 40
0
 40
0
 40
0
 40
1
 40
1
 40
1
 40
1
 10
76.804261
 20
126.878450
 30
0.0
 10
76.888321
 20
126.748917
 30
0.0
 10
77.002009
 20
126.684150
 30
0.0
 10
77.145325
 20
126.684150
 30
0.0
  0
LWPOLYLINE
  5
16a
100
AcDbEntity
  8
Layer_1
 62
7
100
AcDbPolyline
 90
1
 70
1
 10
77.143225
 20
126.192190
 30
0.0
  0
LWPOLYLINE
  5
16b
100
AcDbEntity
  8
Layer_1
 62
7
100
AcDbPolyline
 90
1
 70
1
 10
77.145325
 20
126.684150
 30
0.0
  0
SPLINE
  5
16c
100
AcDbEntity
  8
Layer_1
 62
7
100
AcDbSpline
 70
8
 71
3
 72
8
 73
4
 74
0
 40
0
 40
0
 40
0
 40
0
 40
1
 40
1
 40
1
 40
1
 10
79.375640
 20
128.219970
 30
0.0
 10
79.418360
 20
128.349510
 30
0.0
 10
79.491396
 20
128.448730
 30
0.0
 10
79.594748
 20
128.517630
 30
0.0
  0
SPLINE
  5
16d
100
AcDbEntity
  8
Layer_1
 62
7
100
AcDbSpline
 70
8
 71
3
 72
8
 73
4
 74
0
 40
0
 40
0
 40
0
 40
0
 40
1
 40
1
 40
1
 40
1
 10
79.594748
 20
128.517630
 30
0.0
 10
79.699479
 20
128.587910
 30
0.0
 10
79.826258
 20
128.623050
 30
0.0
 10
79.975086
 20
128.623050
 30
0.0
  0
SPLINE
  5
16e
100
AcDbEntity
  8
Layer_1
 62
7
100
AcDbSpline
 70
8
 71
3
 72
8
 73
4
 74
0
 40
0
 40
0
 40
0
 40
0
 40
1
 40
1
 40
1
 40
1
 10
79.975086
 20
128.623050
 30
0.0
 10
80.190060
 20
128.623050
 30
0.0
 10
80.353357
 20
128.549323
 30
0.0
 10
80.464978
 20
128.401870
 30
0.0
  0
SPLINE
  5
16f
100
AcDbEntity
  8
Layer_1
 62
7
100
AcDbSpline
 70
8
 71
3
 72
8
 73
4
 74
0
 40
0
 40
0
 40
0
 40
0
 40
1
 40
1
 40
1
 40
1
 10
80.464978
 20
128.401870
 30
0.0
 10
80.576599
 20
128.254423
 30
0.0
 10
80.632410
 20
128.038763
 30
0.0
 10
80.632410
 20
127.754890
 30
0.0
  0
LWPOLYLINE
  5
170
100
AcDbEntity
  8
Layer_1
 62
7
100
AcDbPolyline
 90
3
 70
0
 10
78.774165
 20
128.567240
 30
0.0
 10
79.315700
 20
128.567240
 30
0.0
 10
79.375640
 20
128.219970
 30
0.0
  0
SPLINE
  5
171
100
AcDbEntity
  8
Layer_1
 62
7
100
AcDbSpline
 70
8
 71
3
 72
8
 73
4
 74
0
 40
0
 40
0
 40
0
 40
0
 40
1
 40
1
 40
1
 40
1
 10
80.030897
 20
127.661870
 30
0.0
 10
80.030897
 20
127.824477
 30
0.0
 10
80.007470
 20
127.942987
 30
0.0
 10
79.960617
 20
128.017400
 30
0.0
  0
SPLINE
  5
172
100
AcDbEntity
  8
Layer_1
 62
7
100
AcDbSpline
 70
8
 71
3
 72
8
 73
4
 74
0
 40
0
 40
0
 40
0
 40
0
 40
1
 40
1
 40
1
 40
1
 10
79.960617
 20
128.017400
 30
0.0
 10
79.915144
 20
128.093193
 30
0.0
 10
79.844175
 20
128.131090
 30
0.0
 10
79.747710
 20
128.131090
 30
0.0
  0
SPLINE
  5
173
100
AcDbEntity
  8
Layer_1
 62
7
100
AcDbSpline
 70
8
 71
3
 72
8
 73
4
 74
0
 40
0
 40
0
 40
0
 40
0
 40
1
 40
1
 40
1
 40
1
 10
79.747710
 20
128.131090
 30
0.0
 10
79.630577
 20
128.131090
 30
0.0
 10
79.538937
 20
128.081480
 30
0.0
 10
79.472792
 20
127.982260
 30
0.0
  0
SPLINE
  5
174
100
AcDbEntity
  8
Layer_1
 62
7
100
AcDbSpline
 70
8
 71
3
 72
8
 73
4
 74
0
 40
0
 40
0
 40
0
 40
0
 40
1
 40
1
 40
1
 40
1
 10
79.472792
 20
127.982260
 30
0.0
 10
79.408025
 20
127.883040
 30
0.0
 10
79.375642
 20
127.747993
 30
0.0
 10
79.375642
 20
127.577120
 30
0.0
  0
LWPOLYLINE
  5
175
100
AcDbEntity
  8
Layer_1
 62
7
100
AcDbPolyline
 90
4
 70
0
 10
80.632410
 20
127.754890
 30
0.0
 10
80.632410
 20
126.252140
 30
0.0
 10
80.030897
 20
126.252140
 30
0.0
 10
80.030897
 20
127.661870
 30
0.0
  0
LWPOLYLINE
  5
176
100
AcDbEntity
  8
Layer_1
 62
7
100
AcDbPolyline
 90
4
 70
0
 10
79.375642
 20
127.577120
 30
0.0
 10
79.375642
 20
126.252140
 30
0.0
 10
78.774129
 20
126.252140
 30
0.0
 10
78.774165
 20
128.567240
 30
0.0
  0
SPLINE
  5
177
100
AcDbEntity
  8
Layer_1
 62
7
100
AcDbSpline
 70
8
 71
3
 72
8
 73
4
 74
0
 40
0
 40
0
 40
0
 40
0
 40
1
 40
1
 40
1
 40
1
 10
87.453731
 20
126.192190
 30
0.0
 10
87.055478
 20
126.192190
 30
0.0
 10
86.752310
 20
126.294853
 30
0.0
 10
86.544226
 20
126.500180
 30
0.0
  0
SPLINE
  5
178
100
AcDbEntity
  8
Layer_1
 62
7
100
AcDbSpline
 70
8
 71
3
 72
8
 73
4
 74
0
 40
0
 40
0
 40
0
 40
0
 40
1
 40
1
 40
1
 40
1
 10
86.544226
 20
126.500180
 30
0.0
 10
86.337521
 20
126.706887
 30
0.0
 10
86.234168
 20
127.005233
 30
0.0
 10
86.234168
 20
127.395220
 30
0.0
  0
SPLINE
  5
179
100
AcDbEntity
  8
Layer_1
 62
7
100
AcDbSpline
 70
8
 71
3
 72
8
 73
4
 74
0
 40
0
 40
0
 40
0
 40
0
 40
1
 40
1
 40
1
 40
1
 10
86.234168
 20
127.395220
 30
0.0
 10
86.234168
 20
127.641887
 30
0.0
 10
86.276887
 20
127.856860
 30
0.0
 10
86.362325
 20
128.040140
 30
0.0
  0
SPLINE
  5
17a
100
AcDbEntity
  8
Layer_1
 62
7
100
AcDbSpline
 70
8
 71
3
 72
8
 73
4
 74
0
 40
0
 40
0
 40
0
 40
0
 40
1
 40
1
 40
1
 40
1
 10
86.362325
 20
128.040140
 30
0.0
 10
86.447764
 20
128.224793
 30
0.0
 10
86.575232
 20
128.368110
 30
0.0
 10
86.744731
 20
128.470090
 30
0.0
  0
SPLINE
  5
17b
100
AcDbEntity
  8
Layer_1
 62
7
100
AcDbSpline
 70
8
 71
3
 72
8
 73
4
 74
0
 40
0
 40
0
 40
0
 40
0
 40
1
 40
1
 40
1
 40
1
 10
86.744731
 20
128.470090
 30
0.0
 10
86.915608
 20
128.572063
 30
0.0
 10
87.129203
 20
128.623050
 30
0.0
 10
87.385518
 20
128.623050
 30
0.0
  0
SPLINE
  5
17c
100
AcDbEntity
  8
Layer_1
 62
7
100
AcDbSpline
 70
8
 71
3
 72
8
 73
4
 74
0
 40
0
 40
0
 40
0
 40
0
 40
1
 40
1
 40
1
 40
1
 10
87.385518
 20
128.623050
 30
0.0
 10
87.596357
 20
128.623050
 30
0.0
 10
87.778947
 20
128.574130
 30
0.0
 10
87.933288
 20
128.476290
 30
0.0
  0
SPLINE
  5
17d
100
AcDbEntity
  8
Layer_1
 62
7
100
AcDbSpline
 70
8
 71
3
 72
8
 73
4
 74
0
 40
0
 40
0
 40
0
 40
0
 40
1
 40
1
 40
1
 40
1
 10
87.933288
 20
128.476290
 30
0.0
 10
88.087628
 20
128.378450
 30
0.0
 10
88.206828
 20
128.242023
 30
0.0
 10
88.290888
 20
128.067010
 30
0.0
  0
SPLINE
  5
17e
100
AcDbEntity
  8
Layer_1
 62
7
100
AcDbSpline
 70
8
 71
3
 72
8
 73
4
 74
0
 40
0
 40
0
 40
0
 40
0
 40
1
 40
1
 40
1
 40
1
 10
88.290888
 20
128.067010
 30
0.0
 10
88.376327
 20
127.893377
 30
0.0
 10
88.419046
 20
127.690807
 30
0.0
 10
88.419046
 20
127.459300
 30
0.0
  0
LWPOLYLINE
  5
17f
100
AcDbEntity
  8
Layer_1
 62
7
100
AcDbPolyline
 90
6
 70
1
 10
83.981078
 20
129.338250
 30
0.0
 10
84.590859
 20
129.338250
 30
0.0
 10
84.590859
 20
126.789570
 30
0.0
 10
85.895171
 20
126.789570
 30
0.0
 10
85.895171
 20
126.252140
 30
0.0
 10
83.981078
 20
126.252140
 30
0.0
  0
SPLINE
  5
180
100
AcDbEntity
  8
Layer_1
 62
7
100
AcDbSpline
 70
8
 71
3
 72
8
 73
4
 74
0
 40
0
 40
0
 40
0
 40
0
 40
1
 40
1
 40
1
 40
1
 10
86.850151
 20
127.213320
 30
0.0
 10
86.850151
 20
126.852273
 30
0.0
 10
87.060991
 20
126.671750
 30
0.0
 10
87.482670
 20
126.671750
 30
0.0
  0
SPLINE
  5
181
100
AcDbEntity
  8
Layer_1
 62
7
100
AcDbSpline
 70
8
 71
3
 72
8
 73
4
 74
0
 40
0
 40
0
 40
0
 40
0
 40
1
 40
1
 40
1
 40
1
 10
87.482670
 20
126.671750
 30
0.0
 10
87.759655
 20
126.671750
 30
0.0
 10
88.039397
 20
126.755120
 30
0.0
 10
88.321894
 20
126.921860
 30
0.0
  0
LWPOLYLINE
  5
182
100
AcDbEntity
  8
Layer_1
 62
7
100
AcDbPolyline
 90
3
 70
0
 10
88.419046
 20
127.459300
 30
0.0
 10
88.419046
 20
127.213320
 30
0.0
 10
86.850151
 20
127.213320
 30
0.0
  0
SPLINE
  5
183
100
AcDbEntity
  8
Layer_1
 62
7
100
AcDbSpline
 70
8
 71
3
 72
8
 73
4
 74
0
 40
0
 40
0
 40
0
 40
0
 40
1
 40
1
 40
1
 40
1
 10
88.321894
 20
126.365820
 30
0.0
 10
88.040775
 20
126.250067
 30
0.0
 10
87.751387
 20
126.192190
 30
0.0
 10
87.453731
 20
126.192190
 30
0.0
  0
LWPOLYLINE
  5
184
100
AcDbEntity
  8
Layer_1
 62
7
100
AcDbPolyline
 90
2
 70
0
 10
88.321894
 20
126.921860
 30
0.0
 10
88.321894
 20
126.365820
 30
0.0
  0
SPLINE
  5
185
100
AcDbEntity
  8
Layer_1
 62
7
100
AcDbSpline
 70
8
 71
3
 72
8
 73
4
 74
0
 40
0
 40
0
 40
0
 40
0
 40
1
 40
1
 40
1
 40
1
 10
87.809264
 20
127.668070
 30
0.0
 10
87.809264
 20
127.827923
 30
0.0
 10
87.769990
 20
127.948500
 30
0.0
 10
87.691442
 20
128.029800
 30
0.0
  0
SPLINE
  5
186
100
AcDbEntity
  8
Layer_1
 62
7
100
AcDbSpline
 70
8
 71
3
 72
8
 73
4
 74
0
 40
0
 40
0
 40
0
 40
0
 40
1
 40
1
 40
1
 40
1
 10
87.691442
 20
128.029800
 30
0.0
 10
87.612894
 20
128.112487
 30
0.0
 10
87.500584
 20
128.153830
 30
0.0
 10
87.354512
 20
128.153830
 30
0.0
  0
SPLINE
  5
187
100
AcDbEntity
  8
Layer_1
 62
7
100
AcDbSpline
 70
8
 71
3
 72
8
 73
4
 74
0
 40
0
 40
0
 40
0
 40
0
 40
1
 40
1
 40
1
 40
1
 10
87.354512
 20
128.153830
 30
0.0
 10
87.205684
 20
128.153830
 30
0.0
 10
87.089240
 20
128.111800
 30
0.0
 10
87.005180
 20
128.027740
 30
0.0
  0
SPLINE
  5
188
100
AcDbEntity
  8
Layer_1
 62
7
100
AcDbSpline
 70
8
 71
3
 72
8
 73
4
 74
0
 40
0
 40
0
 40
0
 40
0
 40
1
 40
1
 40
1
 40
1
 10
87.005180
 20
128.027740
 30
0.0
 10
86.921119
 20
127.943680
 30
0.0
 10
86.871510
 20
127.823790
 30
0.0
 10
86.856352
 20
127.668070
 30
0.0
  0
LWPOLYLINE
  5
189
100
AcDbEntity
  8
Layer_1
 62
7
100
AcDbPolyline
 90
1
 70
1
 10
87.453731
 20
126.192190
 30
0.0
  0
SPLINE
  5
18a
100
AcDbEntity
  8
Layer_1
 62
7
100
AcDbSpline
 70
8
 71
3
 72
8
 73
4
 74
0
 40
0
 40
0
 40
0
 40
0
 40
1
 40
1
 40
1
 40
1
 10
90.002410
 20
126.192190
 30
0.0
 10
89.604157
 20
126.192190
 30
0.0
 10
89.300989
 20
126.294853
 30
0.0
 10
89.092906
 20
126.500180
 30
0.0
  0
SPLINE
  5
18b
100
AcDbEntity
  8
Layer_1
 62
7
100
AcDbSpline
 70
8
 71
3
 72
8
 73
4
 74
0
 40
0
 40
0
 40
0
 40
0
 40
1
 40
1
 40
1
 40
1
 10
89.092906
 20
126.500180
 30
0.0
 10
88.886200
 20
126.706887
 30
0.0
 10
88.782847
 20
127.005233
 30
0.0
 10
88.782847
 20
127.395220
 30
0.0
  0
SPLINE
  5
18c
100
AcDbEntity
  8
Layer_1
 62
7
100
AcDbSpline
 70
8
 71
3
 72
8
 73
4
 74
0
 40
0
 40
0
 40
0
 40
0
 40
1
 40
1
 40
1
 40
1
 10
88.782847
 20
127.395220
 30
0.0
 10
88.782847
 20
127.641887
 30
0.0
 10
88.825566
 20
127.856860
 30
0.0
 10
88.911005
 20
128.040140
 30
0.0
  0
SPLINE
  5
18d
100
AcDbEntity
  8
Layer_1
 62
7
100
AcDbSpline
 70
8
 71
3
 72
8
 73
4
 74
0
 40
0
 40
0
 40
0
 40
0
 40
1
 40
1
 40
1
 40
1
 10
88.911005
 20
128.040140
 30
0.0
 10
88.996443
 20
128.224793
 30
0.0
 10
89.123911
 20
128.368110
 30
0.0
 10
89.293410
 20
128.470090
 30
0.0
  0
SPLINE
  5
18e
100
AcDbEntity
  8
Layer_1
 62
7
100
AcDbSpline
 70
8
 71
3
 72
8
 73
4
 74
0
 40
0
 40
0
 40
0
 40
0
 40
1
 40
1
 40
1
 40
1
 10
89.293410
 20
128.470090
 30
0.0
 10
89.464287
 20
128.572063
 30
0.0
 10
89.677882
 20
128.623050
 30
0.0
 10
89.934197
 20
128.623050
 30
0.0
  0
SPLINE
  5
18f
100
AcDbEntity
  8
Layer_1
 62
7
100
AcDbSpline
 70
8
 71
3
 72
8
 73
4
 74
0
 40
0
 40
0
 40
0
 40
0
 40
1
 40
1
 40
1
 40
1
 10
89.934197
 20
128.623050
 30
0.0
 10
90.145037
 20
128.623050
 30
0.0
 10
90.327627
 20
128.574130
 30
0.0
 10
90.481967
 20
128.476290
 30
0.0
  0
SPLINE
  5
190
100
AcDbEntity
  8
Layer_1
 62
7
100
AcDbSpline
 70
8
 71
3
 72
8
 73
4
 74
0
 40
0
 40
0
 40
0
 40
0
 40
1
 40
1
 40
1
 40
1
 10
90.481967
 20
128.476290
 30
0.0
 10
90.636307
 20
128.378450
 30
0.0
 10
90.755507
 20
128.242023
 30
0.0
 10
90.839568
 20
128.067010
 30
0.0
  0
SPLINE
  5
191
100
AcDbEntity
  8
Layer_1
 62
7
100
AcDbSpline
 70
8
 71
3
 72
8
 73
4
 74
0
 40
0
 40
0
 40
0
 40
0
 40
1
 40
1
 40
1
 40
1
 10
90.839568
 20
128.067010
 30
0.0
 10
90.925006
 20
127.893377
 30
0.0
 10
90.967725
 20
127.690807
 30
0.0
 10
90.967725
 20
127.459300
 30
0.0
  0
LWPOLYLINE
  5
192
100
AcDbEntity
  8
Layer_1
 62
7
100
AcDbPolyline
 90
2
 70
0
 10
86.856352
 20
127.668070
 30
0.0
 10
87.809264
 20
127.668070
 30
0.0
  0
SPLINE
  5
193
100
AcDbEntity
  8
Layer_1
 62
7
100
AcDbSpline
 70
8
 71
3
 72
8
 73
4
 74
0
 40
0
 40
0
 40
0
 40
0
 40
1
 40
1
 40
1
 40
1
 10
89.398830
 20
127.213320
 30
0.0
 10
89.398830
 20
126.852273
 30
0.0
 10
89.609670
 20
126.671750
 30
0.0
 10
90.031349
 20
126.671750
 30
0.0
  0
SPLINE
  5
194
100
AcDbEntity
  8
Layer_1
 62
7
100
AcDbSpline
 70
8
 71
3
 72
8
 73
4
 74
0
 40
0
 40
0
 40
0
 40
0
 40
1
 40
1
 40
1
 40
1
 10
90.031349
 20
126.671750
 30
0.0
 10
90.308334
 20
126.671750
 30
0.0
 10
90.588076
 20
126.755120
 30
0.0
 10
90.870573
 20
126.921860
 30
0.0
  0
LWPOLYLINE
  5
195
100
AcDbEntity
  8
Layer_1
 62
7
100
AcDbPolyline
 90
3
 70
0
 10
90.967725
 20
127.459300
 30
0.0
 10
90.967725
 20
127.213320
 30
0.0
 10
89.398830
 20
127.213320
 30
0.0
  0
SPLINE
  5
196
100
AcDbEntity
  8
Layer_1
 62
7
100
AcDbSpline
 70
8
 71
3
 72
8
 73
4
 74
0
 40
0
 40
0
 40
0
 40
0
 40
1
 40
1
 40
1
 40
1
 10
90.870573
 20
126.365820
 30
0.0
 10
90.589454
 20
126.250067
 30
0.0
 10
90.300066
 20
126.192190
 30
0.0
 10
90.002410
 20
126.192190
 30
0.0
  0
LWPOLYLINE
  5
197
100
AcDbEntity
  8
Layer_1
 62
7
100
AcDbPolyline
 90
2
 70
0
 10
90.870573
 20
126.921860
 30
0.0
 10
90.870573
 20
126.365820
 30
0.0
  0
SPLINE
  5
198
100
AcDbEntity
  8
Layer_1
 62
7
100
AcDbSpline
 70
8
 71
3
 72
8
 73
4
 74
0
 40
0
 40
0
 40
0
 40
0
 40
1
 40
1
 40
1
 40
1
 10
90.357944
 20
127.668070
 30
0.0
 10
90.357944
 20
127.827923
 30
0.0
 10
90.318670
 20
127.948500
 30
0.0
 10
90.240121
 20
128.029800
 30
0.0
  0
SPLINE
  5
199
100
AcDbEntity
  8
Layer_1
 62
7
100
AcDbSpline
 70
8
 71
3
 72
8
 73
4
 74
0
 40
0
 40
0
 40
0
 40
0
 40
1
 40
1
 40
1
 40
1
 10
90.240121
 20
128.029800
 30
0.0
 10
90.161573
 20
128.112487
 30
0.0
 10
90.049263
 20
128.153830
 30
0.0
 10
89.903191
 20
128.153830
 30
0.0
  0
SPLINE
  5
19a
100
AcDbEntity
  8
Layer_1
 62
7
100
AcDbSpline
 70
8
 71
3
 72
8
 73
4
 74
0
 40
0
 40
0
 40
0
 40
0
 40
1
 40
1
 40
1
 40
1
 10
89.903191
 20
128.153830
 30
0.0
 10
89.754363
 20
128.153830
 30
0.0
 10
89.637919
 20
128.111800
 30
0.0
 10
89.553859
 20
128.027740
 30
0.0
  0
SPLINE
  5
19b
100
AcDbEntity
  8
Layer_1
 62
7
100
AcDbSpline
 70
8
 71
3
 72
8
 73
4
 74
0
 40
0
 40
0
 40
0
 40
0
 40
1
 40
1
 40
1
 40
1
 10
89.553859
 20
128.027740
 30
0.0
 10
89.469799
 20
127.943680
 30
0.0
 10
89.420190
 20
127.823790
 30
0.0
 10
89.405031
 20
127.668070
 30
0.0
  0
LWPOLYLINE
  5
19c
100
AcDbEntity
  8
Layer_1
 62
7
100
AcDbPolyline
 90
1
 70
1
 10
90.002410
 20
126.192190
 30
0.0
  0
SPLINE
  5
19d
100
AcDbEntity
  8
Layer_1
 62
7
100
AcDbSpline
 70
8
 71
3
 72
8
 73
4
 74
0
 40
0
 40
0
 40
0
 40
0
 40
1
 40
1
 40
1
 40
1
 10
41.391431
 20
120.900530
 30
0.0
 10
41.308749
 20
120.900530
 30
0.0
 10
41.228134
 20
120.904663
 30
0.0
 10
41.149586
 20
120.912930
 30
0.0
  0
SPLINE
  5
19e
100
AcDbEntity
  8
Layer_1
 62
7
100
AcDbSpline
 70
8
 71
3
 72
8
 73
4
 74
0
 40
0
 40
0
 40
0
 40
0
 40
1
 40
1
 40
1
 40
1
 10
41.149586
 20
120.912930
 30
0.0
 10
41.071038
 20
120.921197
 30
0.0
 10
40.992490
 20
120.934963
 30
0.0
 10
40.913941
 20
120.954230
 30
0.0
  0
SPLINE
  5
19f
100
AcDbEntity
  8
Layer_1
 62
7
100
AcDbSpline
 70
8
 71
3
 72
8
 73
4
 74
0
 40
0
 40
0
 40
0
 40
0
 40
1
 40
1
 40
1
 40
1
 10
40.913941
 20
120.954230
 30
0.0
 10
40.754089
 20
120.991430
 30
0.0
 10
40.605261
 20
121.045863
 30
0.0
 10
40.467457
 20
121.117530
 30
0.0
  0
LWPOLYLINE
  5
1a0
100
AcDbEntity
  8
Layer_1
 62
7
100
AcDbPolyline
 90
2
 70
0
 10
89.405031
 20
127.668070
 30
0.0
 10
90.357944
 20
127.668070
 30
0.0
  0
SPLINE
  5
1a1
100
AcDbEntity
  8
Layer_1
 62
7
100
AcDbSpline
 70
8
 71
3
 72
8
 73
4
 74
0
 40
0
 40
0
 40
0
 40
0
 40
1
 40
1
 40
1
 40
1
 10
40.467457
 20
121.747980
 30
0.0
 10
40.631444
 20
121.632227
 30
0.0
 10
40.789229
 20
121.546100
 30
0.0
 10
40.940813
 20
121.489600
 30
0.0
  0
SPLINE
  5
1a2
100
AcDbEntity
  8
Layer_1
 62
7
100
AcDbSpline
 70
8
 71
3
 72
8
 73
4
 74
0
 40
0
 40
0
 40
0
 40
0
 40
1
 40
1
 40
1
 40
1
 10
40.940813
 20
121.489600
 30
0.0
 10
41.095153
 20
121.433067
 30
0.0
 10
41.243981
 20
121.404800
 30
0.0
 10
41.387297
 20
121.404800
 30
0.0
  0
SPLINE
  5
1a3
100
AcDbEntity
  8
Layer_1
 62
7
100
AcDbSpline
 70
8
 71
3
 72
8
 73
4
 74
0
 40
0
 40
0
 40
0
 40
0
 40
1
 40
1
 40
1
 40
1
 10
41.387297
 20
121.404800
 30
0.0
 10
41.538881
 20
121.404800
 30
0.0
 10
41.656703
 20
121.439250
 30
0.0
 10
41.740764
 20
121.508150
 30
0.0
  0
SPLINE
  5
1a4
100
AcDbEntity
  8
Layer_1
 62
7
100
AcDbSpline
 70
8
 71
3
 72
8
 73
4
 74
0
 40
0
 40
0
 40
0
 40
0
 40
1
 40
1
 40
1
 40
1
 10
41.740764
 20
121.508150
 30
0.0
 10
41.823446
 20
121.575677
 30
0.0
 10
41.864787
 20
121.670763
 30
0.0
 10
41.864787
 20
121.793410
 30
0.0
  0
SPLINE
  5
1a5
100
AcDbEntity
  8
Layer_1
 62
7
100
AcDbSpline
 70
8
 71
3
 72
8
 73
4
 74
0
 40
0
 40
0
 40
0
 40
0
 40
1
 40
1
 40
1
 40
1
 10
41.864787
 20
121.793410
 30
0.0
 10
41.864787
 20
121.888490
 30
0.0
 10
41.837227
 20
121.969793
 30
0.0
 10
41.782107
 20
122.037320
 30
0.0
  0
SPLINE
  5
1a6
100
AcDbEntity
  8
Layer_1
 62
7
100
AcDbSpline
 70
8
 71
3
 72
8
 73
4
 74
0
 40
0
 40
0
 40
0
 40
0
 40
1
 40
1
 40
1
 40
1
 10
41.782107
 20
122.037320
 30
0.0
 10
41.753167
 20
122.073120
 30
0.0
 10
41.718027
 20
122.104120
 30
0.0
 10
41.676687
 20
122.130320
 30
0.0
  0
SPLINE
  5
1a7
100
AcDbEntity
  8
Layer_1
 62
7
100
AcDbSpline
 70
8
 71
3
 72
8
 73
4
 74
0
 40
0
 40
0
 40
0
 40
0
 40
1
 40
1
 40
1
 40
1
 10
41.676687
 20
122.130320
 30
0.0
 10
41.636727
 20
122.157853
 30
0.0
 10
41.591941
 20
122.181287
 30
0.0
 10
41.542328
 20
122.200620
 30
0.0
  0
LWPOLYLINE
  5
1a8
100
AcDbEntity
  8
Layer_1
 62
7
100
AcDbPolyline
 90
2
 70
0
 10
40.467457
 20
121.117530
 30
0.0
 10
40.467457
 20
121.747980
 30
0.0
  0
SPLINE
  5
1a9
100
AcDbEntity
  8
Layer_1
 62
7
100
AcDbSpline
 70
8
 71
3
 72
8
 73
4
 74
0
 40
0
 40
0
 40
0
 40
0
 40
1
 40
1
 40
1
 40
1
 10
41.242605
 20
122.314310
 30
0.0
 10
41.084131
 20
122.374910
 30
0.0
 10
40.953907
 20
122.435543
 30
0.0
 10
40.851932
 20
122.496210
 30
0.0
  0
SPLINE
  5
1aa
100
AcDbEntity
  8
Layer_1
 62
7
100
AcDbSpline
 70
8
 71
3
 72
8
 73
4
 74
0
 40
0
 40
0
 40
0
 40
0
 40
1
 40
1
 40
1
 40
1
 10
40.851932
 20
122.496210
 30
0.0
 10
40.749957
 20
122.558210
 30
0.0
 10
40.672098
 20
122.620910
 30
0.0
 10
40.618355
 20
122.684310
 30
0.0
  0
SPLINE
  5
1ab
100
AcDbEntity
  8
Layer_1
 62
7
100
AcDbSpline
 70
8
 71
3
 72
8
 73
4
 74
0
 40
0
 40
0
 40
0
 40
0
 40
1
 40
1
 40
1
 40
1
 10
40.618355
 20
122.684310
 30
0.0
 10
40.509490
 20
122.809710
 30
0.0
 10
40.455057
 20
122.982653
 30
0.0
 10
40.455057
 20
123.203140
 30
0.0
  0
SPLINE
  5
1ac
100
AcDbEntity
  8
Layer_1
 62
7
100
AcDbSpline
 70
8
 71
3
 72
8
 73
4
 74
0
 40
0
 40
0
 40
0
 40
0
 40
1
 40
1
 40
1
 40
1
 10
40.455057
 20
123.203140
 30
0.0
 10
40.455057
 20
123.484260
 30
0.0
 10
40.544629
 20
123.704057
 30
0.0
 10
40.723774
 20
123.862530
 30
0.0
  0
SPLINE
  5
1ad
100
AcDbEntity
  8
Layer_1
 62
7
100
AcDbSpline
 70
8
 71
3
 72
8
 73
4
 74
0
 40
0
 40
0
 40
0
 40
0
 40
1
 40
1
 40
1
 40
1
 10
40.723774
 20
123.862530
 30
0.0
 10
40.904297
 20
124.022383
 30
0.0
 10
41.149588
 20
124.102310
 30
0.0
 10
41.459646
 20
124.102310
 30
0.0
  0
SPLINE
  5
1ae
100
AcDbEntity
  8
Layer_1
 62
7
100
AcDbSpline
 70
8
 71
3
 72
8
 73
4
 74
0
 40
0
 40
0
 40
0
 40
0
 40
1
 40
1
 40
1
 40
1
 10
41.459646
 20
124.102310
 30
0.0
 10
41.612608
 20
124.102310
 30
0.0
 10
41.755235
 20
124.087143
 30
0.0
 10
41.887527
 20
124.056810
 30
0.0
  0
SPLINE
  5
1af
100
AcDbEntity
  8
Layer_1
 62
7
100
AcDbSpline
 70
8
 71
3
 72
8
 73
4
 74
0
 40
0
 40
0
 40
0
 40
0
 40
1
 40
1
 40
1
 40
1
 10
41.887527
 20
124.056810
 30
0.0
 10
42.021196
 20
124.026477
 30
0.0
 10
42.161756
 20
123.977557
 30
0.0
 10
42.309206
 20
123.910050
 30
0.0
  0
LWPOLYLINE
  5
1b0
100
AcDbEntity
  8
Layer_1
 62
7
100
AcDbPolyline
 90
2
 70
0
 10
41.542328
 20
122.200620
 30
0.0
 10
41.242605
 20
122.314310
 30
0.0
  0
SPLINE
  5
1b1
100
AcDbEntity
  8
Layer_1
 62
7
100
AcDbSpline
 70
8
 71
3
 72
8
 73
4
 74
0
 40
0
 40
0
 40
0
 40
0
 40
1
 40
1
 40
1
 40
1
 10
42.309206
 20
123.314740
 30
0.0
 10
42.044623
 20
123.503533
 30
0.0
 10
41.777283
 20
123.597930
 30
0.0
 10
41.507188
 20
123.597930
 30
0.0
  0
SPLINE
  5
1b2
100
AcDbEntity
  8
Layer_1
 62
7
100
AcDbSpline
 70
8
 71
3
 72
8
 73
4
 74
0
 40
0
 40
0
 40
0
 40
0
 40
1
 40
1
 40
1
 40
1
 10
41.507188
 20
123.597930
 30
0.0
 10
41.358360
 20
123.597930
 30
0.0
 10
41.246050
 20
123.568297
 30
0.0
 10
41.170258
 20
123.509030
 30
0.0
  0
SPLINE
  5
1b3
100
AcDbEntity
  8
Layer_1
 62
7
100
AcDbSpline
 70
8
 71
3
 72
8
 73
4
 74
0
 40
0
 40
0
 40
0
 40
0
 40
1
 40
1
 40
1
 40
1
 10
41.170258
 20
123.509030
 30
0.0
 10
41.091710
 20
123.449763
 30
0.0
 10
41.052436
 20
123.365703
 30
0.0
 10
41.052436
 20
123.256850
 30
0.0
  0
SPLINE
  5
1b4
100
AcDbEntity
  8
Layer_1
 62
7
100
AcDbSpline
 70
8
 71
3
 72
8
 73
4
 74
0
 40
0
 40
0
 40
0
 40
0
 40
1
 40
1
 40
1
 40
1
 10
41.052436
 20
123.256850
 30
0.0
 10
41.052436
 20
123.170037
 30
0.0
 10
41.081376
 20
123.099070
 30
0.0
 10
41.139256
 20
123.043950
 30
0.0
  0
SPLINE
  5
1b5
100
AcDbEntity
  8
Layer_1
 62
7
100
AcDbSpline
 70
8
 71
3
 72
8
 73
4
 74
0
 40
0
 40
0
 40
0
 40
0
 40
1
 40
1
 40
1
 40
1
 10
41.139256
 20
123.043950
 30
0.0
 10
41.166816
 20
123.016417
 30
0.0
 10
41.207468
 20
122.988150
 30
0.0
 10
41.261212
 20
122.959150
 30
0.0
  0
SPLINE
  5
1b6
100
AcDbEntity
  8
Layer_1
 62
7
100
AcDbSpline
 70
8
 71
3
 72
8
 73
4
 74
0
 40
0
 40
0
 40
0
 40
0
 40
1
 40
1
 40
1
 40
1
 10
41.261212
 20
122.959150
 30
0.0
 10
41.316332
 20
122.930217
 30
0.0
 10
41.394880
 20
122.896453
 30
0.0
 10
41.496856
 20
122.857860
 30
0.0
  0
LWPOLYLINE
  5
1b7
100
AcDbEntity
  8
Layer_1
 62
7
100
AcDbPolyline
 90
2
 70
0
 10
42.309206
 20
123.910050
 30
0.0
 10
42.309206
 20
123.314740
 30
0.0
  0
SPLINE
  5
1b8
100
AcDbEntity
  8
Layer_1
 62
7
100
AcDbSpline
 70
8
 71
3
 72
8
 73
4
 74
0
 40
0
 40
0
 40
0
 40
0
 40
1
 40
1
 40
1
 40
1
 10
41.759372
 20
122.758660
 30
0.0
 10
42.008797
 20
122.666333
 30
0.0
 10
42.191387
 20
122.546443
 30
0.0
 10
42.307142
 20
122.398990
 30
0.0
  0
SPLINE
  5
1b9
100
AcDbEntity
  8
Layer_1
 62
7
100
AcDbSpline
 70
8
 71
3
 72
8
 73
4
 74
0
 40
0
 40
0
 40
0
 40
0
 40
1
 40
1
 40
1
 40
1
 10
42.307142
 20
122.398990
 30
0.0
 10
42.424275
 20
122.248790
 30
0.0
 10
42.482842
 20
122.055177
 30
0.0
 10
42.482842
 20
121.818150
 30
0.0
  0
SPLINE
  5
1ba
100
AcDbEntity
  8
Layer_1
 62
7
100
AcDbSpline
 70
8
 71
3
 72
8
 73
4
 74
0
 40
0
 40
0
 40
0
 40
0
 40
1
 40
1
 40
1
 40
1
 10
42.482842
 20
121.818150
 30
0.0
 10
42.482842
 20
121.513603
 30
0.0
 10
42.390513
 20
121.284850
 30
0.0
 10
42.205856
 20
121.131890
 30
0.0
  0
SPLINE
  5
1bb
100
AcDbEntity
  8
Layer_1
 62
7
100
AcDbSpline
 70
8
 71
3
 72
8
 73
4
 74
0
 40
0
 40
0
 40
0
 40
0
 40
1
 40
1
 40
1
 40
1
 10
42.205856
 20
121.131890
 30
0.0
 10
42.021199
 20
120.977550
 30
0.0
 10
41.749726
 20
120.900380
 30
0.0
 10
41.391436
 20
120.900380
 30
0.0
  0
LWPOLYLINE
  5
1bc
100
AcDbEntity
  8
Layer_1
 62
7
100
AcDbPolyline
 90
2
 70
0
 10
41.496856
 20
122.857860
 30
0.0
 10
41.759372
 20
122.758660
 30
0.0
  0
SPLINE
  5
1bd
100
AcDbEntity
  8
Layer_1
 62
7
100
AcDbSpline
 70
8
 71
3
 72
8
 73
4
 74
0
 40
0
 40
0
 40
0
 40
0
 40
1
 40
1
 40
1
 40
1
 10
43.737539
 20
120.900530
 30
0.0
 10
43.497761
 20
120.900530
 30
0.0
 10
43.303458
 20
120.968743
 30
0.0
 10
43.154630
 20
121.105170
 30
0.0
  0
SPLINE
  5
1be
100
AcDbEntity
  8
Layer_1
 62
7
100
AcDbSpline
 70
8
 71
3
 72
8
 73
4
 74
0
 40
0
 40
0
 40
0
 40
0
 40
1
 40
1
 40
1
 40
1
 10
43.154630
 20
121.105170
 30
0.0
 10
43.007180
 20
121.242970
 30
0.0
 10
42.933455
 20
121.440717
 30
0.0
 10
42.933455
 20
121.698410
 30
0.0
  0
SPLINE
  5
1bf
100
AcDbEntity
  8
Layer_1
 62
7
100
AcDbSpline
 70
8
 71
3
 72
8
 73
4
 74
0
 40
0
 40
0
 40
0
 40
0
 40
1
 40
1
 40
1
 40
1
 10
42.933455
 20
121.698410
 30
0.0
 10
42.933455
 20
121.861023
 30
0.0
 10
42.962395
 20
121.993317
 30
0.0
 10
43.020275
 20
122.095290
 30
0.0
  0
SPLINE
  5
1c0
100
AcDbEntity
  8
Layer_1
 62
7
100
AcDbSpline
 70
8
 71
3
 72
8
 73
4
 74
0
 40
0
 40
0
 40
0
 40
0
 40
1
 40
1
 40
1
 40
1
 10
43.020275
 20
122.095290
 30
0.0
 10
43.079528
 20
122.198643
 30
0.0
 10
43.159455
 20
122.278570
 30
0.0
 10
43.260054
 20
122.335070
 30
0.0
  0
SPLINE
  5
1c1
100
AcDbEntity
  8
Layer_1
 62
7
100
AcDbSpline
 70
8
 71
3
 72
8
 73
4
 74
0
 40
0
 40
0
 40
0
 40
0
 40
1
 40
1
 40
1
 40
1
 10
43.260054
 20
122.335070
 30
0.0
 10
43.362029
 20
122.391537
 30
0.0
 10
43.477095
 20
122.430120
 30
0.0
 10
43.605252
 20
122.450820
 30
0.0
  0
SPLINE
  5
1c2
100
AcDbEntity
  8
Layer_1
 62
7
100
AcDbSpline
 70
8
 71
3
 72
8
 73
4
 74
0
 40
0
 40
0
 40
0
 40
0
 40
1
 40
1
 40
1
 40
1
 10
43.605252
 20
122.450820
 30
0.0
 10
43.733409
 20
122.472887
 30
0.0
 10
43.867768
 20
122.483920
 30
0.0
 10
44.008328
 20
122.483920
 30
0.0
  0
LWPOLYLINE
  5
1c3
100
AcDbEntity
  8
Layer_1
 62
7
100
AcDbPolyline
 90
2
 70
0
 10
41.391436
 20
120.900380
 30
0.0
 10
41.391431
 20
120.900530
 30
0.0
  0
SPLINE
  5
1c4
100
AcDbEntity
  8
Layer_1
 62
7
100
AcDbSpline
 70
8
 71
3
 72
8
 73
4
 74
0
 40
0
 40
0
 40
0
 40
0
 40
1
 40
1
 40
1
 40
1
 10
44.427940
 20
122.585210
 30
0.0
 10
44.427940
 20
122.667890
 30
0.0
 10
44.405890
 20
122.730590
 30
0.0
 10
44.361790
 20
122.773310
 30
0.0
  0
SPLINE
  5
1c5
100
AcDbEntity
  8
Layer_1
 62
7
100
AcDbSpline
 70
8
 71
3
 72
8
 73
4
 74
0
 40
0
 40
0
 40
0
 40
0
 40
1
 40
1
 40
1
 40
1
 10
44.361790
 20
122.773310
 30
0.0
 10
44.319070
 20
122.816043
 30
0.0
 10
44.263260
 20
122.844977
 30
0.0
 10
44.194359
 20
122.860110
 30
0.0
  0
SPLINE
  5
1c6
100
AcDbEntity
  8
Layer_1
 62
7
100
AcDbSpline
 70
8
 71
3
 72
8
 73
4
 74
0
 40
0
 40
0
 40
0
 40
0
 40
1
 40
1
 40
1
 40
1
 10
44.194359
 20
122.860110
 30
0.0
 10
44.126835
 20
122.875243
 30
0.0
 10
44.057244
 20
122.882810
 30
0.0
 10
43.985586
 20
122.882810
 30
0.0
  0
SPLINE
  5
1c7
100
AcDbEntity
  8
Layer_1
 62
7
100
AcDbSpline
 70
8
 71
3
 72
8
 73
4
 74
0
 40
0
 40
0
 40
0
 40
0
 40
1
 40
1
 40
1
 40
1
 10
43.985586
 20
122.882810
 30
0.0
 10
43.839514
 20
122.882810
 30
0.0
 10
43.698954
 20
122.862843
 30
0.0
 10
43.563907
 20
122.822910
 30
0.0
  0
SPLINE
  5
1c8
100
AcDbEntity
  8
Layer_1
 62
7
100
AcDbSpline
 70
8
 71
3
 72
8
 73
4
 74
0
 40
0
 40
0
 40
0
 40
0
 40
1
 40
1
 40
1
 40
1
 10
43.563907
 20
122.822910
 30
0.0
 10
43.430237
 20
122.782977
 30
0.0
 10
43.296567
 20
122.726477
 30
0.0
 10
43.162898
 20
122.653410
 30
0.0
  0
LWPOLYLINE
  5
1c9
100
AcDbEntity
  8
Layer_1
 62
7
100
AcDbPolyline
 90
3
 70
0
 10
44.008328
 20
122.483920
 30
0.0
 10
44.427940
 20
122.483920
 30
0.0
 10
44.427940
 20
122.585210
 30
0.0
  0
SPLINE
  5
1ca
100
AcDbEntity
  8
Layer_1
 62
7
100
AcDbSpline
 70
8
 71
3
 72
8
 73
4
 74
0
 40
0
 40
0
 40
0
 40
0
 40
1
 40
1
 40
1
 40
1
 10
43.162898
 20
123.170180
 30
0.0
 10
43.306214
 20
123.228047
 30
0.0
 10
43.448152
 20
123.269387
 30
0.0
 10
43.588711
 20
123.294200
 30
0.0
  0
SPLINE
  5
1cb
100
AcDbEntity
  8
Layer_1
 62
7
100
AcDbSpline
 70
8
 71
3
 72
8
 73
4
 74
0
 40
0
 40
0
 40
0
 40
0
 40
1
 40
1
 40
1
 40
1
 10
43.588711
 20
123.294200
 30
0.0
 10
43.730649
 20
123.320400
 30
0.0
 10
43.873965
 20
123.333500
 30
0.0
 10
44.018659
 20
123.333500
 30
0.0
  0
SPLINE
  5
1cc
100
AcDbEntity
  8
Layer_1
 62
7
100
AcDbSpline
 70
8
 71
3
 72
8
 73
4
 74
0
 40
0
 40
0
 40
0
 40
0
 40
1
 40
1
 40
1
 40
1
 10
44.018659
 20
123.333500
 30
0.0
 10
44.272218
 20
123.333500
 30
0.0
 10
44.472722
 20
123.296983
 30
0.0
 10
44.620172
 20
123.223950
 30
0.0
  0
SPLINE
  5
1cd
100
AcDbEntity
  8
Layer_1
 62
7
100
AcDbSpline
 70
8
 71
3
 72
8
 73
4
 74
0
 40
0
 40
0
 40
0
 40
0
 40
1
 40
1
 40
1
 40
1
 10
44.620172
 20
123.223950
 30
0.0
 10
44.767622
 20
123.152290
 30
0.0
 10
44.872353
 20
123.040670
 30
0.0
 10
44.934365
 20
122.889090
 30
0.0
  0
SPLINE
  5
1ce
100
AcDbEntity
  8
Layer_1
 62
7
100
AcDbSpline
 70
8
 71
3
 72
8
 73
4
 74
0
 40
0
 40
0
 40
0
 40
0
 40
1
 40
1
 40
1
 40
1
 10
44.934365
 20
122.889090
 30
0.0
 10
44.997752
 20
122.738883
 30
0.0
 10
45.029445
 20
122.547337
 30
0.0
 10
45.029445
 20
122.314450
 30
0.0
  0
SPLINE
  5
1cf
100
AcDbEntity
  8
Layer_1
 62
7
100
AcDbSpline
 70
8
 71
3
 72
8
 73
4
 74
0
 40
0
 40
0
 40
0
 40
0
 40
1
 40
1
 40
1
 40
1
 10
45.029445
 20
122.314450
 30
0.0
 10
45.029445
 20
122.260717
 30
0.0
 10
45.028078
 20
122.191813
 30
0.0
 10
45.025345
 20
122.107740
 30
0.0
  0
SPLINE
  5
1d0
100
AcDbEntity
  8
Layer_1
 62
7
100
AcDbSpline
 70
8
 71
3
 72
8
 73
4
 74
0
 40
0
 40
0
 40
0
 40
0
 40
1
 40
1
 40
1
 40
1
 10
45.025345
 20
122.107740
 30
0.0
 10
45.023945
 20
122.023680
 30
0.0
 10
45.023245
 20
121.939620
 30
0.0
 10
45.023245
 20
121.855560
 30
0.0
  0
SPLINE
  5
1d1
100
AcDbEntity
  8
Layer_1
 62
7
100
AcDbSpline
 70
8
 71
3
 72
8
 73
4
 74
0
 40
0
 40
0
 40
0
 40
0
 40
1
 40
1
 40
1
 40
1
 10
45.023245
 20
121.855560
 30
0.0
 10
45.023245
 20
121.781147
 30
0.0
 10
45.022545
 20
121.710867
 30
0.0
 10
45.021145
 20
121.644720
 30
0.0
  0
SPLINE
  5
1d2
100
AcDbEntity
  8
Layer_1
 62
7
100
AcDbSpline
 70
8
 71
3
 72
8
 73
4
 74
0
 40
0
 40
0
 40
0
 40
0
 40
1
 40
1
 40
1
 40
1
 10
45.021145
 20
121.644720
 30
0.0
 10
45.019745
 20
121.578587
 30
0.0
 10
45.019045
 20
121.522777
 30
0.0
 10
45.019045
 20
121.477290
 30
0.0
  0
SPLINE
  5
1d3
100
AcDbEntity
  8
Layer_1
 62
7
100
AcDbSpline
 70
8
 71
3
 72
8
 73
4
 74
0
 40
0
 40
0
 40
0
 40
0
 40
1
 40
1
 40
1
 40
1
 10
45.019045
 20
121.477290
 30
0.0
 10
45.019045
 20
121.437357
 30
0.0
 10
45.021112
 20
121.384990
 30
0.0
 10
45.025245
 20
121.320190
 30
0.0
  0
SPLINE
  5
1d4
100
AcDbEntity
  8
Layer_1
 62
7
100
AcDbSpline
 70
8
 71
3
 72
8
 73
4
 74
0
 40
0
 40
0
 40
0
 40
0
 40
1
 40
1
 40
1
 40
1
 10
45.025245
 20
121.320190
 30
0.0
 10
45.029378
 20
121.256790
 30
0.0
 10
45.039025
 20
121.192023
 30
0.0
 10
45.054185
 20
121.125890
 30
0.0
  0
SPLINE
  5
1d5
100
AcDbEntity
  8
Layer_1
 62
7
100
AcDbSpline
 70
8
 71
3
 72
8
 73
4
 74
0
 40
0
 40
0
 40
0
 40
0
 40
1
 40
1
 40
1
 40
1
 10
45.054185
 20
121.125890
 30
0.0
 10
45.069345
 20
121.059757
 30
0.0
 10
45.092772
 20
121.004633
 30
0.0
 10
45.124465
 20
120.960520
 30
0.0
  0
LWPOLYLINE
  5
1d6
100
AcDbEntity
  8
Layer_1
 62
7
100
AcDbPolyline
 90
2
 70
0
 10
43.162898
 20
122.653410
 30
0.0
 10
43.162898
 20
123.170180
 30
0.0
  0
SPLINE
  5
1d7
100
AcDbEntity
  8
Layer_1
 62
7
100
AcDbSpline
 70
8
 71
3
 72
8
 73
4
 74
0
 40
0
 40
0
 40
0
 40
0
 40
1
 40
1
 40
1
 40
1
 10
44.525019
 20
120.960520
 30
0.0
 10
44.498839
 20
121.004653
 30
0.0
 10
44.479546
 20
121.045997
 30
0.0
 10
44.467139
 20
121.084550
 30
0.0
  0
SPLINE
  5
1d8
100
AcDbEntity
  8
Layer_1
 62
7
100
AcDbSpline
 70
8
 71
3
 72
8
 73
4
 74
0
 40
0
 40
0
 40
0
 40
0
 40
1
 40
1
 40
1
 40
1
 10
44.467139
 20
121.084550
 30
0.0
 10
44.454739
 20
121.123150
 30
0.0
 10
44.445782
 20
121.167937
 30
0.0
 10
44.440269
 20
121.218910
 30
0.0
  0
SPLINE
  5
1d9
100
AcDbEntity
  8
Layer_1
 62
7
100
AcDbSpline
 70
8
 71
3
 72
8
 73
4
 74
0
 40
0
 40
0
 40
0
 40
0
 40
1
 40
1
 40
1
 40
1
 10
44.440269
 20
121.218910
 30
0.0
 10
44.358965
 20
121.110043
 30
0.0
 10
44.256990
 20
121.029427
 30
0.0
 10
44.134345
 20
120.977060
 30
0.0
  0
SPLINE
  5
1da
100
AcDbEntity
  8
Layer_1
 62
7
100
AcDbSpline
 70
8
 71
3
 72
8
 73
4
 74
0
 40
0
 40
0
 40
0
 40
0
 40
1
 40
1
 40
1
 40
1
 10
44.134345
 20
120.977060
 30
0.0
 10
44.013078
 20
120.926060
 30
0.0
 10
43.880786
 20
120.900560
 30
0.0
 10
43.737470
 20
120.900560
 30
0.0
  0
LWPOLYLINE
  5
1db
100
AcDbEntity
  8
Layer_1
 62
7
100
AcDbPolyline
 90
2
 70
0
 10
45.124465
 20
120.960520
 30
0.0
 10
44.525019
 20
120.960520
 30
0.0
  0
SPLINE
  5
1dc
100
AcDbEntity
  8
Layer_1
 62
7
100
AcDbSpline
 70
8
 71
3
 72
8
 73
4
 74
0
 40
0
 40
0
 40
0
 40
0
 40
1
 40
1
 40
1
 40
1
 10
43.935977
 20
121.320140
 30
0.0
 10
44.062756
 20
121.320140
 30
0.0
 10
44.161286
 20
121.354590
 30
0.0
 10
44.231566
 20
121.423490
 30
0.0
  0
SPLINE
  5
1dd
100
AcDbEntity
  8
Layer_1
 62
7
100
AcDbSpline
 70
8
 71
3
 72
8
 73
4
 74
0
 40
0
 40
0
 40
0
 40
0
 40
1
 40
1
 40
1
 40
1
 10
44.231566
 20
121.423490
 30
0.0
 10
44.303224
 20
121.493770
 30
0.0
 10
44.353522
 20
121.581277
 30
0.0
 10
44.382461
 20
121.686010
 30
0.0
  0
SPLINE
  5
1de
100
AcDbEntity
  8
Layer_1
 62
7
100
AcDbSpline
 70
8
 71
3
 72
8
 73
4
 74
0
 40
0
 40
0
 40
0
 40
0
 40
1
 40
1
 40
1
 40
1
 10
44.382461
 20
121.686010
 30
0.0
 10
44.412781
 20
121.792117
 30
0.0
 10
44.427941
 20
121.898913
 30
0.0
 10
44.427941
 20
122.006400
 30
0.0
  0
LWPOLYLINE
  5
1df
100
AcDbEntity
  8
Layer_1
 62
7
100
AcDbPolyline
 90
1
 70
1
 10
43.737470
 20
120.900560
 30
0.0
  0
SPLINE
  5
1e0
100
AcDbEntity
  8
Layer_1
 62
7
100
AcDbSpline
 70
8
 71
3
 72
8
 73
4
 74
0
 40
0
 40
0
 40
0
 40
0
 40
1
 40
1
 40
1
 40
1
 10
44.186096
 20
122.047700
 30
0.0
 10
44.091011
 20
122.047700
 30
0.0
 10
43.996616
 20
122.040800
 30
0.0
 10
43.902909
 20
122.027000
 30
0.0
  0
SPLINE
  5
1e1
100
AcDbEntity
  8
Layer_1
 62
7
100
AcDbSpline
 70
8
 71
3
 72
8
 73
4
 74
0
 40
0
 40
0
 40
0
 40
0
 40
1
 40
1
 40
1
 40
1
 10
43.902909
 20
122.027000
 30
0.0
 10
43.809202
 20
122.014600
 30
0.0
 10
43.731343
 20
121.982233
 30
0.0
 10
43.669332
 20
121.929900
 30
0.0
  0
SPLINE
  5
1e2
100
AcDbEntity
  8
Layer_1
 62
7
100
AcDbSpline
 70
8
 71
3
 72
8
 73
4
 74
0
 40
0
 40
0
 40
0
 40
0
 40
1
 40
1
 40
1
 40
1
 10
43.669332
 20
121.929900
 30
0.0
 10
43.608699
 20
121.878900
 30
0.0
 10
43.578382
 20
121.794153
 30
0.0
 10
43.578382
 20
121.675660
 30
0.0
  0
SPLINE
  5
1e3
100
AcDbEntity
  8
Layer_1
 62
7
100
AcDbSpline
 70
8
 71
3
 72
8
 73
4
 74
0
 40
0
 40
0
 40
0
 40
0
 40
1
 40
1
 40
1
 40
1
 10
43.578382
 20
121.675660
 30
0.0
 10
43.578382
 20
121.562660
 30
0.0
 10
43.609389
 20
121.475153
 30
0.0
 10
43.671402
 20
121.413140
 30
0.0
  0
SPLINE
  5
1e4
100
AcDbEntity
  8
Layer_1
 62
7
100
AcDbSpline
 70
8
 71
3
 72
8
 73
4
 74
0
 40
0
 40
0
 40
0
 40
0
 40
1
 40
1
 40
1
 40
1
 10
43.671402
 20
121.413140
 30
0.0
 10
43.734789
 20
121.351140
 30
0.0
 10
43.822983
 20
121.320140
 30
0.0
 10
43.935985
 20
121.320140
 30
0.0
  0
LWPOLYLINE
  5
1e5
100
AcDbEntity
  8
Layer_1
 62
7
100
AcDbPolyline
 90
3
 70
0
 10
44.427941
 20
122.006400
 30
0.0
 10
44.427941
 20
122.047700
 30
0.0
 10
44.186096
 20
122.047700
 30
0.0
  0
LWPOLYLINE
  5
1e6
100
AcDbEntity
  8
Layer_1
 62
7
100
AcDbPolyline
 90
1
 70
1
 10
43.935985
 20
121.320140
 30
0.0
  0
SPLINE
  5
1e7
100
AcDbEntity
  8
Layer_1
 62
7
100
AcDbSpline
 70
8
 71
3
 72
8
 73
4
 74
0
 40
0
 40
0
 40
0
 40
0
 40
1
 40
1
 40
1
 40
1
 10
48.834899
 20
120.900530
 30
0.0
 10
48.595120
 20
120.900530
 30
0.0
 10
48.400817
 20
120.968743
 30
0.0
 10
48.251989
 20
121.105170
 30
0.0
  0
SPLINE
  5
1e8
100
AcDbEntity
  8
Layer_1
 62
7
100
AcDbSpline
 70
8
 71
3
 72
8
 73
4
 74
0
 40
0
 40
0
 40
0
 40
0
 40
1
 40
1
 40
1
 40
1
 10
48.251989
 20
121.105170
 30
0.0
 10
48.104539
 20
121.242970
 30
0.0
 10
48.030814
 20
121.440717
 30
0.0
 10
48.030814
 20
121.698410
 30
0.0
  0
SPLINE
  5
1e9
100
AcDbEntity
  8
Layer_1
 62
7
100
AcDbSpline
 70
8
 71
3
 72
8
 73
4
 74
0
 40
0
 40
0
 40
0
 40
0
 40
1
 40
1
 40
1
 40
1
 10
48.030814
 20
121.698410
 30
0.0
 10
48.030814
 20
121.861023
 30
0.0
 10
48.059754
 20
121.993317
 30
0.0
 10
48.117634
 20
122.095290
 30
0.0
  0
SPLINE
  5
1ea
100
AcDbEntity
  8
Layer_1
 62
7
100
AcDbSpline
 70
8
 71
3
 72
8
 73
4
 74
0
 40
0
 40
0
 40
0
 40
0
 40
1
 40
1
 40
1
 40
1
 10
48.117634
 20
122.095290
 30
0.0
 10
48.176887
 20
122.198643
 30
0.0
 10
48.256813
 20
122.278570
 30
0.0
 10
48.357412
 20
122.335070
 30
0.0
  0
SPLINE
  5
1eb
100
AcDbEntity
  8
Layer_1
 62
7
100
AcDbSpline
 70
8
 71
3
 72
8
 73
4
 74
0
 40
0
 40
0
 40
0
 40
0
 40
1
 40
1
 40
1
 40
1
 10
48.357412
 20
122.335070
 30
0.0
 10
48.459387
 20
122.391537
 30
0.0
 10
48.574453
 20
122.430120
 30
0.0
 10
48.702610
 20
122.450820
 30
0.0
  0
SPLINE
  5
1ec
100
AcDbEntity
  8
Layer_1
 62
7
100
AcDbSpline
 70
8
 71
3
 72
8
 73
4
 74
0
 40
0
 40
0
 40
0
 40
0
 40
1
 40
1
 40
1
 40
1
 10
48.702610
 20
122.450820
 30
0.0
 10
48.830768
 20
122.472887
 30
0.0
 10
48.965127
 20
122.483920
 30
0.0
 10
49.105686
 20
122.483920
 30
0.0
  0
LWPOLYLINE
  5
1ed
100
AcDbEntity
  8
Layer_1
 62
7
100
AcDbPolyline
 90
7
 70
1
 10
45.451129
 20
123.275580
 30
0.0
 10
46.065044
 20
123.275580
 30
0.0
 10
46.559070
 20
121.468970
 30
0.0
 10
47.055164
 20
123.275580
 30
0.0
 10
47.669079
 20
123.275580
 30
0.0
 10
46.933207
 20
120.960470
 30
0.0
 10
46.187000
 20
120.960470
 30
0.0
  0
SPLINE
  5
1ee
100
AcDbEntity
  8
Layer_1
 62
7
100
AcDbSpline
 70
8
 71
3
 72
8
 73
4
 74
0
 40
0
 40
0
 40
0
 40
0
 40
1
 40
1
 40
1
 40
1
 10
49.525298
 20
122.585210
 30
0.0
 10
49.525298
 20
122.667890
 30
0.0
 10
49.503251
 20
122.730590
 30
0.0
 10
49.459158
 20
122.773310
 30
0.0
  0
SPLINE
  5
1ef
100
AcDbEntity
  8
Layer_1
 62
7
100
AcDbSpline
 70
8
 71
3
 72
8
 73
4
 74
0
 40
0
 40
0
 40
0
 40
0
 40
1
 40
1
 40
1
 40
1
 10
49.459158
 20
122.773310
 30
0.0
 10
49.416438
 20
122.816043
 30
0.0
 10
49.360627
 20
122.844977
 30
0.0
 10
49.291726
 20
122.860110
 30
0.0
  0
SPLINE
  5
1f0
100
AcDbEntity
  8
Layer_1
 62
7
100
AcDbSpline
 70
8
 71
3
 72
8
 73
4
 74
0
 40
0
 40
0
 40
0
 40
0
 40
1
 40
1
 40
1
 40
1
 10
49.291726
 20
122.860110
 30
0.0
 10
49.224202
 20
122.875243
 30
0.0
 10
49.154611
 20
122.882810
 30
0.0
 10
49.082954
 20
122.882810
 30
0.0
  0
SPLINE
  5
1f1
100
AcDbEntity
  8
Layer_1
 62
7
100
AcDbSpline
 70
8
 71
3
 72
8
 73
4
 74
0
 40
0
 40
0
 40
0
 40
0
 40
1
 40
1
 40
1
 40
1
 10
49.082954
 20
122.882810
 30
0.0
 10
48.936882
 20
122.882810
 30
0.0
 10
48.796322
 20
122.862843
 30
0.0
 10
48.661274
 20
122.822910
 30
0.0
  0
SPLINE
  5
1f2
100
AcDbEntity
  8
Layer_1
 62
7
100
AcDbSpline
 70
8
 71
3
 72
8
 73
4
 74
0
 40
0
 40
0
 40
0
 40
0
 40
1
 40
1
 40
1
 40
1
 10
48.661274
 20
122.822910
 30
0.0
 10
48.527605
 20
122.782977
 30
0.0
 10
48.393935
 20
122.726477
 30
0.0
 10
48.260265
 20
122.653410
 30
0.0
  0
LWPOLYLINE
  5
1f3
100
AcDbEntity
  8
Layer_1
 62
7
100
AcDbPolyline
 90
3
 70
0
 10
49.105686
 20
122.483920
 30
0.0
 10
49.525298
 20
122.483920
 30
0.0
 10
49.525298
 20
122.585210
 30
0.0
  0
SPLINE
  5
1f4
100
AcDbEntity
  8
Layer_1
 62
7
100
AcDbSpline
 70
8
 71
3
 72
8
 73
4
 74
0
 40
0
 40
0
 40
0
 40
0
 40
1
 40
1
 40
1
 40
1
 10
48.260265
 20
123.170180
 30
0.0
 10
48.403581
 20
123.228047
 30
0.0
 10
48.545519
 20
123.269387
 30
0.0
 10
48.686079
 20
123.294200
 30
0.0
  0
SPLINE
  5
1f5
100
AcDbEntity
  8
Layer_1
 62
7
100
AcDbSpline
 70
8
 71
3
 72
8
 73
4
 74
0
 40
0
 40
0
 40
0
 40
0
 40
1
 40
1
 40
1
 40
1
 10
48.686079
 20
123.294200
 30
0.0
 10
48.828017
 20
123.320400
 30
0.0
 10
48.971333
 20
123.333500
 30
0.0
 10
49.116026
 20
123.333500
 30
0.0
  0
SPLINE
  5
1f6
100
AcDbEntity
  8
Layer_1
 62
7
100
AcDbSpline
 70
8
 71
3
 72
8
 73
4
 74
0
 40
0
 40
0
 40
0
 40
0
 40
1
 40
1
 40
1
 40
1
 10
49.116026
 20
123.333500
 30
0.0
 10
49.369585
 20
123.333500
 30
0.0
 10
49.570090
 20
123.296983
 30
0.0
 10
49.717540
 20
123.223950
 30
0.0
  0
SPLINE
  5
1f7
100
AcDbEntity
  8
Layer_1
 62
7
100
AcDbSpline
 70
8
 71
3
 72
8
 73
4
 74
0
 40
0
 40
0
 40
0
 40
0
 40
1
 40
1
 40
1
 40
1
 10
49.717540
 20
123.223950
 30
0.0
 10
49.864990
 20
123.152290
 30
0.0
 10
49.969721
 20
123.040670
 30
0.0
 10
50.031732
 20
122.889090
 30
0.0
  0
SPLINE
  5
1f8
100
AcDbEntity
  8
Layer_1
 62
7
100
AcDbSpline
 70
8
 71
3
 72
8
 73
4
 74
0
 40
0
 40
0
 40
0
 40
0
 40
1
 40
1
 40
1
 40
1
 10
50.031732
 20
122.889090
 30
0.0
 10
50.095125
 20
122.738883
 30
0.0
 10
50.126822
 20
122.547337
 30
0.0
 10
50.126822
 20
122.314450
 30
0.0
  0
SPLINE
  5
1f9
100
AcDbEntity
  8
Layer_1
 62
7
100
AcDbSpline
 70
8
 71
3
 72
8
 73
4
 74
0
 40
0
 40
0
 40
0
 40
0
 40
1
 40
1
 40
1
 40
1
 10
50.126822
 20
122.314450
 30
0.0
 10
50.126822
 20
122.260717
 30
0.0
 10
50.125455
 20
122.191813
 30
0.0
 10
50.122722
 20
122.107740
 30
0.0
  0
SPLINE
  5
1fa
100
AcDbEntity
  8
Layer_1
 62
7
100
AcDbSpline
 70
8
 71
3
 72
8
 73
4
 74
0
 40
0
 40
0
 40
0
 40
0
 40
1
 40
1
 40
1
 40
1
 10
50.122722
 20
122.107740
 30
0.0
 10
50.121322
 20
122.023680
 30
0.0
 10
50.120622
 20
121.939620
 30
0.0
 10
50.120622
 20
121.855560
 30
0.0
  0
SPLINE
  5
1fb
100
AcDbEntity
  8
Layer_1
 62
7
100
AcDbSpline
 70
8
 71
3
 72
8
 73
4
 74
0
 40
0
 40
0
 40
0
 40
0
 40
1
 40
1
 40
1
 40
1
 10
50.120622
 20
121.855560
 30
0.0
 10
50.120622
 20
121.781147
 30
0.0
 10
50.119922
 20
121.710867
 30
0.0
 10
50.118522
 20
121.644720
 30
0.0
  0
SPLINE
  5
1fc
100
AcDbEntity
  8
Layer_1
 62
7
100
AcDbSpline
 70
8
 71
3
 72
8
 73
4
 74
0
 40
0
 40
0
 40
0
 40
0
 40
1
 40
1
 40
1
 40
1
 10
50.118522
 20
121.644720
 30
0.0
 10
50.117122
 20
121.578587
 30
0.0
 10
50.116422
 20
121.522777
 30
0.0
 10
50.116422
 20
121.477290
 30
0.0
  0
SPLINE
  5
1fd
100
AcDbEntity
  8
Layer_1
 62
7
100
AcDbSpline
 70
8
 71
3
 72
8
 73
4
 74
0
 40
0
 40
0
 40
0
 40
0
 40
1
 40
1
 40
1
 40
1
 10
50.116422
 20
121.477290
 30
0.0
 10
50.116422
 20
121.437357
 30
0.0
 10
50.118489
 20
121.384990
 30
0.0
 10
50.122622
 20
121.320190
 30
0.0
  0
SPLINE
  5
1fe
100
AcDbEntity
  8
Layer_1
 62
7
100
AcDbSpline
 70
8
 71
3
 72
8
 73
4
 74
0
 40
0
 40
0
 40
0
 40
0
 40
1
 40
1
 40
1
 40
1
 10
50.122622
 20
121.320190
 30
0.0
 10
50.126755
 20
121.256790
 30
0.0
 10
50.136402
 20
121.192023
 30
0.0
 10
50.151562
 20
121.125890
 30
0.0
  0
SPLINE
  5
1ff
100
AcDbEntity
  8
Layer_1
 62
7
100
AcDbSpline
 70
8
 71
3
 72
8
 73
4
 74
0
 40
0
 40
0
 40
0
 40
0
 40
1
 40
1
 40
1
 40
1
 10
50.151562
 20
121.125890
 30
0.0
 10
50.166722
 20
121.059757
 30
0.0
 10
50.190149
 20
121.004633
 30
0.0
 10
50.221842
 20
120.960520
 30
0.0
  0
LWPOLYLINE
  5
200
100
AcDbEntity
  8
Layer_1
 62
7
100
AcDbPolyline
 90
2
 70
0
 10
48.260265
 20
122.653410
 30
0.0
 10
48.260265
 20
123.170180
 30
0.0
  0
SPLINE
  5
201
100
AcDbEntity
  8
Layer_1
 62
7
100
AcDbSpline
 70
8
 71
3
 72
8
 73
4
 74
0
 40
0
 40
0
 40
0
 40
0
 40
1
 40
1
 40
1
 40
1
 10
49.622396
 20
120.960520
 30
0.0
 10
49.596216
 20
121.004653
 30
0.0
 10
49.576923
 20
121.045997
 30
0.0
 10
49.564516
 20
121.084550
 30
0.0
  0
SPLINE
  5
202
100
AcDbEntity
  8
Layer_1
 62
7
100
AcDbSpline
 70
8
 71
3
 72
8
 73
4
 74
0
 40
0
 40
0
 40
0
 40
0
 40
1
 40
1
 40
1
 40
1
 10
49.564516
 20
121.084550
 30
0.0
 10
49.552116
 20
121.123150
 30
0.0
 10
49.543159
 20
121.167937
 30
0.0
 10
49.537646
 20
121.218910
 30
0.0
  0
SPLINE
  5
203
100
AcDbEntity
  8
Layer_1
 62
7
100
AcDbSpline
 70
8
 71
3
 72
8
 73
4
 74
0
 40
0
 40
0
 40
0
 40
0
 40
1
 40
1
 40
1
 40
1
 10
49.537646
 20
121.218910
 30
0.0
 10
49.456341
 20
121.110043
 30
0.0
 10
49.354367
 20
121.029427
 30
0.0
 10
49.231722
 20
120.977060
 30
0.0
  0
SPLINE
  5
204
100
AcDbEntity
  8
Layer_1
 62
7
100
AcDbSpline
 70
8
 71
3
 72
8
 73
4
 74
0
 40
0
 40
0
 40
0
 40
0
 40
1
 40
1
 40
1
 40
1
 10
49.231722
 20
120.977060
 30
0.0
 10
49.110455
 20
120.926060
 30
0.0
 10
48.978163
 20
120.900560
 30
0.0
 10
48.834847
 20
120.900560
 30
0.0
  0
LWPOLYLINE
  5
205
100
AcDbEntity
  8
Layer_1
 62
7
100
AcDbPolyline
 90
2
 70
0
 10
50.221842
 20
120.960520
 30
0.0
 10
49.622396
 20
120.960520
 30
0.0
  0
SPLINE
  5
206
100
AcDbEntity
  8
Layer_1
 62
7
100
AcDbSpline
 70
8
 71
3
 72
8
 73
4
 74
0
 40
0
 40
0
 40
0
 40
0
 40
1
 40
1
 40
1
 40
1
 10
49.033336
 20
121.320140
 30
0.0
 10
49.160115
 20
121.320140
 30
0.0
 10
49.258645
 20
121.354590
 30
0.0
 10
49.328925
 20
121.423490
 30
0.0
  0
SPLINE
  5
207
100
AcDbEntity
  8
Layer_1
 62
7
100
AcDbSpline
 70
8
 71
3
 72
8
 73
4
 74
0
 40
0
 40
0
 40
0
 40
0
 40
1
 40
1
 40
1
 40
1
 10
49.328925
 20
121.423490
 30
0.0
 10
49.400583
 20
121.493770
 30
0.0
 10
49.450881
 20
121.581277
 30
0.0
 10
49.479820
 20
121.686010
 30
0.0
  0
SPLINE
  5
208
100
AcDbEntity
  8
Layer_1
 62
7
100
AcDbSpline
 70
8
 71
3
 72
8
 73
4
 74
0
 40
0
 40
0
 40
0
 40
0
 40
1
 40
1
 40
1
 40
1
 10
49.479820
 20
121.686010
 30
0.0
 10
49.510140
 20
121.792117
 30
0.0
 10
49.525300
 20
121.898913
 30
0.0
 10
49.525300
 20
122.006400
 30
0.0
  0
LWPOLYLINE
  5
209
100
AcDbEntity
  8
Layer_1
 62
7
100
AcDbPolyline
 90
1
 70
1
 10
48.834847
 20
120.900560
 30
0.0
  0
SPLINE
  5
20a
100
AcDbEntity
  8
Layer_1
 62
7
100
AcDbSpline
 70
8
 71
3
 72
8
 73
4
 74
0
 40
0
 40
0
 40
0
 40
0
 40
1
 40
1
 40
1
 40
1
 10
49.283450
 20
122.047700
 30
0.0
 10
49.188365
 20
122.047700
 30
0.0
 10
49.093970
 20
122.040800
 30
0.0
 10
49.000263
 20
122.027000
 30
0.0
  0
SPLINE
  5
20b
100
AcDbEntity
  8
Layer_1
 62
7
100
AcDbSpline
 70
8
 71
3
 72
8
 73
4
 74
0
 40
0
 40
0
 40
0
 40
0
 40
1
 40
1
 40
1
 40
1
 10
49.000263
 20
122.027000
 30
0.0
 10
48.906557
 20
122.014600
 30
0.0
 10
48.828698
 20
121.982233
 30
0.0
 10
48.766686
 20
121.929900
 30
0.0
  0
SPLINE
  5
20c
100
AcDbEntity
  8
Layer_1
 62
7
100
AcDbSpline
 70
8
 71
3
 72
8
 73
4
 74
0
 40
0
 40
0
 40
0
 40
0
 40
1
 40
1
 40
1
 40
1
 10
48.766686
 20
121.929900
 30
0.0
 10
48.706053
 20
121.878900
 30
0.0
 10
48.675736
 20
121.794153
 30
0.0
 10
48.675736
 20
121.675660
 30
0.0
  0
SPLINE
  5
20d
100
AcDbEntity
  8
Layer_1
 62
7
100
AcDbSpline
 70
8
 71
3
 72
8
 73
4
 74
0
 40
0
 40
0
 40
0
 40
0
 40
1
 40
1
 40
1
 40
1
 10
48.675736
 20
121.675660
 30
0.0
 10
48.675736
 20
121.562660
 30
0.0
 10
48.706743
 20
121.475153
 30
0.0
 10
48.768756
 20
121.413140
 30
0.0
  0
SPLINE
  5
20e
100
AcDbEntity
  8
Layer_1
 62
7
100
AcDbSpline
 70
8
 71
3
 72
8
 73
4
 74
0
 40
0
 40
0
 40
0
 40
0
 40
1
 40
1
 40
1
 40
1
 10
48.768756
 20
121.413140
 30
0.0
 10
48.832149
 20
121.351140
 30
0.0
 10
48.920344
 20
121.320140
 30
0.0
 10
49.033339
 20
121.320140
 30
0.0
  0
LWPOLYLINE
  5
20f
100
AcDbEntity
  8
Layer_1
 62
7
100
AcDbPolyline
 90
3
 70
0
 10
49.525300
 20
122.006400
 30
0.0
 10
49.525300
 20
122.047700
 30
0.0
 10
49.283450
 20
122.047700
 30
0.0
  0
SPLINE
  5
210
100
AcDbEntity
  8
Layer_1
 62
7
100
AcDbSpline
 70
8
 71
3
 72
8
 73
4
 74
0
 40
0
 40
0
 40
0
 40
0
 40
1
 40
1
 40
1
 40
1
 10
51.588217
 20
120.084040
 30
0.0
 10
51.326390
 20
120.084040
 30
0.0
 10
51.072831
 20
120.121937
 30
0.0
 10
50.827540
 20
120.197730
 30
0.0
  0
LWPOLYLINE
  5
211
100
AcDbEntity
  8
Layer_1
 62
7
100
AcDbPolyline
 90
1
 70
1
 10
49.033339
 20
121.320140
 30
0.0
  0
SPLINE
  5
212
100
AcDbEntity
  8
Layer_1
 62
7
100
AcDbSpline
 70
8
 71
3
 72
8
 73
4
 74
0
 40
0
 40
0
 40
0
 40
0
 40
1
 40
1
 40
1
 40
1
 10
50.827540
 20
120.753770
 30
0.0
 10
51.050782
 20
120.629743
 30
0.0
 10
51.283670
 20
120.567730
 30
0.0
 10
51.526205
 20
120.567730
 30
0.0
  0
SPLINE
  5
213
100
AcDbEntity
  8
Layer_1
 62
7
100
AcDbSpline
 70
8
 71
3
 72
8
 73
4
 74
0
 40
0
 40
0
 40
0
 40
0
 40
1
 40
1
 40
1
 40
1
 10
51.526205
 20
120.567730
 30
0.0
 10
51.706728
 20
120.567730
 30
0.0
 10
51.837641
 20
120.607693
 30
0.0
 10
51.918946
 20
120.687620
 30
0.0
  0
SPLINE
  5
214
100
AcDbEntity
  8
Layer_1
 62
7
100
AcDbSpline
 70
8
 71
3
 72
8
 73
4
 74
0
 40
0
 40
0
 40
0
 40
0
 40
1
 40
1
 40
1
 40
1
 10
51.918946
 20
120.687620
 30
0.0
 10
52.001628
 20
120.767547
 30
0.0
 10
52.042969
 20
120.893637
 30
0.0
 10
52.042969
 20
121.065890
 30
0.0
  0
LWPOLYLINE
  5
215
100
AcDbEntity
  8
Layer_1
 62
7
100
AcDbPolyline
 90
2
 70
0
 10
50.827540
 20
120.197730
 30
0.0
 10
50.827540
 20
120.753770
 30
0.0
  0
SPLINE
  5
216
100
AcDbEntity
  8
Layer_1
 62
7
100
AcDbSpline
 70
8
 71
3
 72
8
 73
4
 74
0
 40
0
 40
0
 40
0
 40
0
 40
1
 40
1
 40
1
 40
1
 10
52.042969
 20
121.316010
 30
0.0
 10
51.924458
 20
121.098277
 30
0.0
 10
51.728776
 20
120.989410
 30
0.0
 10
51.455925
 20
120.989410
 30
0.0
  0
SPLINE
  5
217
100
AcDbEntity
  8
Layer_1
 62
7
100
AcDbSpline
 70
8
 71
3
 72
8
 73
4
 74
0
 40
0
 40
0
 40
0
 40
0
 40
1
 40
1
 40
1
 40
1
 10
51.455925
 20
120.989410
 30
0.0
 10
51.293317
 20
120.989410
 30
0.0
 10
51.156202
 20
121.022477
 30
0.0
 10
51.044581
 20
121.088610
 30
0.0
  0
SPLINE
  5
218
100
AcDbEntity
  8
Layer_1
 62
7
100
AcDbSpline
 70
8
 71
3
 72
8
 73
4
 74
0
 40
0
 40
0
 40
0
 40
0
 40
1
 40
1
 40
1
 40
1
 10
51.044581
 20
121.088610
 30
0.0
 10
50.934338
 20
121.156137
 30
0.0
 10
50.845455
 20
121.245020
 30
0.0
 10
50.777931
 20
121.355260
 30
0.0
  0
SPLINE
  5
219
100
AcDbEntity
  8
Layer_1
 62
7
100
AcDbSpline
 70
8
 71
3
 72
8
 73
4
 74
0
 40
0
 40
0
 40
0
 40
0
 40
1
 40
1
 40
1
 40
1
 10
50.777931
 20
121.355260
 30
0.0
 10
50.710407
 20
121.466880
 30
0.0
 10
50.661487
 20
121.590213
 30
0.0
 10
50.631170
 20
121.725260
 30
0.0
  0
SPLINE
  5
21a
100
AcDbEntity
  8
Layer_1
 62
7
100
AcDbSpline
 70
8
 71
3
 72
8
 73
4
 74
0
 40
0
 40
0
 40
0
 40
0
 40
1
 40
1
 40
1
 40
1
 10
50.631170
 20
121.725260
 30
0.0
 10
50.600857
 20
121.860313
 30
0.0
 10
50.585700
 20
121.996740
 30
0.0
 10
50.585700
 20
122.134540
 30
0.0
  0
SPLINE
  5
21b
100
AcDbEntity
  8
Layer_1
 62
7
100
AcDbSpline
 70
8
 71
3
 72
8
 73
4
 74
0
 40
0
 40
0
 40
0
 40
0
 40
1
 40
1
 40
1
 40
1
 10
50.585700
 20
122.134540
 30
0.0
 10
50.585700
 20
122.269587
 30
0.0
 10
50.600170
 20
122.406703
 30
0.0
 10
50.629110
 20
122.545890
 30
0.0
  0
SPLINE
  5
21c
100
AcDbEntity
  8
Layer_1
 62
7
100
AcDbSpline
 70
8
 71
3
 72
8
 73
4
 74
0
 40
0
 40
0
 40
0
 40
0
 40
1
 40
1
 40
1
 40
1
 10
50.629110
 20
122.545890
 30
0.0
 10
50.658050
 20
122.686450
 30
0.0
 10
50.704903
 20
122.816673
 30
0.0
 10
50.769670
 20
122.936560
 30
0.0
  0
SPLINE
  5
21d
100
AcDbEntity
  8
Layer_1
 62
7
100
AcDbSpline
 70
8
 71
3
 72
8
 73
4
 74
0
 40
0
 40
0
 40
0
 40
0
 40
1
 40
1
 40
1
 40
1
 10
50.769670
 20
122.936560
 30
0.0
 10
50.835817
 20
123.056447
 30
0.0
 10
50.922633
 20
123.152910
 30
0.0
 10
51.030119
 20
123.225950
 30
0.0
  0
SPLINE
  5
21e
100
AcDbEntity
  8
Layer_1
 62
7
100
AcDbSpline
 70
8
 71
3
 72
8
 73
4
 74
0
 40
0
 40
0
 40
0
 40
0
 40
1
 40
1
 40
1
 40
1
 10
51.030119
 20
123.225950
 30
0.0
 10
51.138984
 20
123.298983
 30
0.0
 10
51.272653
 20
123.335500
 30
0.0
 10
51.431128
 20
123.335500
 30
0.0
  0
SPLINE
  5
21f
100
AcDbEntity
  8
Layer_1
 62
7
100
AcDbSpline
 70
8
 71
3
 72
8
 73
4
 74
0
 40
0
 40
0
 40
0
 40
0
 40
1
 40
1
 40
1
 40
1
 10
51.431128
 20
123.335500
 30
0.0
 10
51.715003
 20
123.335500
 30
0.0
 10
51.918953
 20
123.216990
 30
0.0
 10
52.042976
 20
122.979970
 30
0.0
  0
LWPOLYLINE
  5
220
100
AcDbEntity
  8
Layer_1
 62
7
100
AcDbPolyline
 90
2
 70
0
 10
52.042969
 20
121.065890
 30
0.0
 10
52.042969
 20
121.316010
 30
0.0
  0
SPLINE
  5
221
100
AcDbEntity
  8
Layer_1
 62
7
100
AcDbSpline
 70
8
 71
3
 72
8
 73
4
 74
0
 40
0
 40
0
 40
0
 40
0
 40
1
 40
1
 40
1
 40
1
 10
52.648618
 20
121.134090
 30
0.0
 10
52.648618
 20
120.763397
 30
0.0
 10
52.565247
 20
120.496057
 30
0.0
 10
52.398505
 20
120.332070
 30
0.0
  0
SPLINE
  5
222
100
AcDbEntity
  8
Layer_1
 62
7
100
AcDbSpline
 70
8
 71
3
 72
8
 73
4
 74
0
 40
0
 40
0
 40
0
 40
0
 40
1
 40
1
 40
1
 40
1
 10
52.398505
 20
120.332070
 30
0.0
 10
52.231762
 20
120.166703
 30
0.0
 10
51.961667
 20
120.084020
 30
0.0
 10
51.588219
 20
120.084020
 30
0.0
  0
LWPOLYLINE
  5
223
100
AcDbEntity
  8
Layer_1
 62
7
100
AcDbPolyline
 90
4
 70
0
 10
52.042976
 20
122.979970
 30
0.0
 10
52.102916
 20
123.275560
 30
0.0
 10
52.648618
 20
123.275560
 30
0.0
 10
52.648618
 20
121.134090
 30
0.0
  0
SPLINE
  5
224
100
AcDbEntity
  8
Layer_1
 62
7
100
AcDbSpline
 70
8
 71
3
 72
8
 73
4
 74
0
 40
0
 40
0
 40
0
 40
0
 40
1
 40
1
 40
1
 40
1
 10
51.615087
 20
121.468970
 30
0.0
 10
51.740489
 20
121.468970
 30
0.0
 10
51.843153
 20
121.533050
 30
0.0
 10
51.923079
 20
121.661210
 30
0.0
  0
SPLINE
  5
225
100
AcDbEntity
  8
Layer_1
 62
7
100
AcDbSpline
 70
8
 71
3
 72
8
 73
4
 74
0
 40
0
 40
0
 40
0
 40
0
 40
1
 40
1
 40
1
 40
1
 10
51.923079
 20
121.661210
 30
0.0
 10
52.003005
 20
121.789363
 30
0.0
 10
52.042968
 20
121.954037
 30
0.0
 10
52.042968
 20
122.155230
 30
0.0
  0
SPLINE
  5
226
100
AcDbEntity
  8
Layer_1
 62
7
100
AcDbSpline
 70
8
 71
3
 72
8
 73
4
 74
0
 40
0
 40
0
 40
0
 40
0
 40
1
 40
1
 40
1
 40
1
 10
52.042968
 20
122.155230
 30
0.0
 10
52.042968
 20
122.356423
 30
0.0
 10
52.003005
 20
122.520410
 30
0.0
 10
51.923079
 20
122.647190
 30
0.0
  0
SPLINE
  5
227
100
AcDbEntity
  8
Layer_1
 62
7
100
AcDbSpline
 70
8
 71
3
 72
8
 73
4
 74
0
 40
0
 40
0
 40
0
 40
0
 40
1
 40
1
 40
1
 40
1
 10
51.923079
 20
122.647190
 30
0.0
 10
51.844531
 20
122.775350
 30
0.0
 10
51.742556
 20
122.839430
 30
0.0
 10
51.617155
 20
122.839430
 30
0.0
  0
SPLINE
  5
228
100
AcDbEntity
  8
Layer_1
 62
7
100
AcDbSpline
 70
8
 71
3
 72
8
 73
4
 74
0
 40
0
 40
0
 40
0
 40
0
 40
1
 40
1
 40
1
 40
1
 10
51.617155
 20
122.839430
 30
0.0
 10
51.491753
 20
122.839430
 30
0.0
 10
51.389089
 20
122.775350
 30
0.0
 10
51.309163
 20
122.647190
 30
0.0
  0
SPLINE
  5
229
100
AcDbEntity
  8
Layer_1
 62
7
100
AcDbSpline
 70
8
 71
3
 72
8
 73
4
 74
0
 40
0
 40
0
 40
0
 40
0
 40
1
 40
1
 40
1
 40
1
 10
51.309163
 20
122.647190
 30
0.0
 10
51.230615
 20
122.520410
 30
0.0
 10
51.191341
 20
122.356423
 30
0.0
 10
51.191341
 20
122.155230
 30
0.0
  0
SPLINE
  5
22a
100
AcDbEntity
  8
Layer_1
 62
7
100
AcDbSpline
 70
8
 71
3
 72
8
 73
4
 74
0
 40
0
 40
0
 40
0
 40
0
 40
1
 40
1
 40
1
 40
1
 10
51.191341
 20
122.155230
 30
0.0
 10
51.191341
 20
121.954037
 30
0.0
 10
51.230615
 20
121.789363
 30
0.0
 10
51.309163
 20
121.661210
 30
0.0
  0
SPLINE
  5
22b
100
AcDbEntity
  8
Layer_1
 62
7
100
AcDbSpline
 70
8
 71
3
 72
8
 73
4
 74
0
 40
0
 40
0
 40
0
 40
0
 40
1
 40
1
 40
1
 40
1
 10
51.309163
 20
121.661210
 30
0.0
 10
51.387711
 20
121.533050
 30
0.0
 10
51.489686
 20
121.468970
 30
0.0
 10
51.615087
 20
121.468970
 30
0.0
  0
LWPOLYLINE
  5
22c
100
AcDbEntity
  8
Layer_1
 62
7
100
AcDbPolyline
 90
1
 70
1
 10
51.588219
 20
120.084020
 30
0.0
  0
SPLINE
  5
22d
100
AcDbEntity
  8
Layer_1
 62
7
100
AcDbSpline
 70
8
 71
3
 72
8
 73
4
 74
0
 40
0
 40
0
 40
0
 40
0
 40
1
 40
1
 40
1
 40
1
 10
54.320863
 20
120.900530
 30
0.0
 10
53.922610
 20
120.900530
 30
0.0
 10
53.619442
 20
121.003193
 30
0.0
 10
53.411359
 20
121.208520
 30
0.0
  0
SPLINE
  5
22e
100
AcDbEntity
  8
Layer_1
 62
7
100
AcDbSpline
 70
8
 71
3
 72
8
 73
4
 74
0
 40
0
 40
0
 40
0
 40
0
 40
1
 40
1
 40
1
 40
1
 10
53.411359
 20
121.208520
 30
0.0
 10
53.204653
 20
121.415227
 30
0.0
 10
53.101300
 20
121.713573
 30
0.0
 10
53.101300
 20
122.103560
 30
0.0
  0
SPLINE
  5
22f
100
AcDbEntity
  8
Layer_1
 62
7
100
AcDbSpline
 70
8
 71
3
 72
8
 73
4
 74
0
 40
0
 40
0
 40
0
 40
0
 40
1
 40
1
 40
1
 40
1
 10
53.101300
 20
122.103560
 30
0.0
 10
53.101300
 20
122.350227
 30
0.0
 10
53.144019
 20
122.565200
 30
0.0
 10
53.229458
 20
122.748480
 30
0.0
  0
SPLINE
  5
230
100
AcDbEntity
  8
Layer_1
 62
7
100
AcDbSpline
 70
8
 71
3
 72
8
 73
4
 74
0
 40
0
 40
0
 40
0
 40
0
 40
1
 40
1
 40
1
 40
1
 10
53.229458
 20
122.748480
 30
0.0
 10
53.314896
 20
122.933133
 30
0.0
 10
53.442364
 20
123.076447
 30
0.0
 10
53.611863
 20
123.178420
 30
0.0
  0
SPLINE
  5
231
100
AcDbEntity
  8
Layer_1
 62
7
100
AcDbSpline
 70
8
 71
3
 72
8
 73
4
 74
0
 40
0
 40
0
 40
0
 40
0
 40
1
 40
1
 40
1
 40
1
 10
53.611863
 20
123.178420
 30
0.0
 10
53.782740
 20
123.280400
 30
0.0
 10
53.996335
 20
123.331390
 30
0.0
 10
54.252650
 20
123.331390
 30
0.0
  0
SPLINE
  5
232
100
AcDbEntity
  8
Layer_1
 62
7
100
AcDbSpline
 70
8
 71
3
 72
8
 73
4
 74
0
 40
0
 40
0
 40
0
 40
0
 40
1
 40
1
 40
1
 40
1
 10
54.252650
 20
123.331390
 30
0.0
 10
54.463490
 20
123.331390
 30
0.0
 10
54.646080
 20
123.282470
 30
0.0
 10
54.800420
 20
123.184630
 30
0.0
  0
SPLINE
  5
233
100
AcDbEntity
  8
Layer_1
 62
7
100
AcDbSpline
 70
8
 71
3
 72
8
 73
4
 74
0
 40
0
 40
0
 40
0
 40
0
 40
1
 40
1
 40
1
 40
1
 10
54.800420
 20
123.184630
 30
0.0
 10
54.954760
 20
123.086783
 30
0.0
 10
55.073960
 20
122.950357
 30
0.0
 10
55.158021
 20
122.775350
 30
0.0
  0
SPLINE
  5
234
100
AcDbEntity
  8
Layer_1
 62
7
100
AcDbSpline
 70
8
 71
3
 72
8
 73
4
 74
0
 40
0
 40
0
 40
0
 40
0
 40
1
 40
1
 40
1
 40
1
 10
55.158021
 20
122.775350
 30
0.0
 10
55.243459
 20
122.601717
 30
0.0
 10
55.286178
 20
122.399143
 30
0.0
 10
55.286178
 20
122.167630
 30
0.0
  0
LWPOLYLINE
  5
235
100
AcDbEntity
  8
Layer_1
 62
7
100
AcDbPolyline
 90
1
 70
1
 10
51.615087
 20
121.468970
 30
0.0
  0
SPLINE
  5
236
100
AcDbEntity
  8
Layer_1
 62
7
100
AcDbSpline
 70
8
 71
3
 72
8
 73
4
 74
0
 40
0
 40
0
 40
0
 40
0
 40
1
 40
1
 40
1
 40
1
 10
53.717283
 20
121.921650
 30
0.0
 10
53.717283
 20
121.560610
 30
0.0
 10
53.928123
 20
121.380090
 30
0.0
 10
54.349802
 20
121.380090
 30
0.0
  0
SPLINE
  5
237
100
AcDbEntity
  8
Layer_1
 62
7
100
AcDbSpline
 70
8
 71
3
 72
8
 73
4
 74
0
 40
0
 40
0
 40
0
 40
0
 40
1
 40
1
 40
1
 40
1
 10
54.349802
 20
121.380090
 30
0.0
 10
54.626787
 20
121.380090
 30
0.0
 10
54.906529
 20
121.463460
 30
0.0
 10
55.189026
 20
121.630200
 30
0.0
  0
LWPOLYLINE
  5
238
100
AcDbEntity
  8
Layer_1
 62
7
100
AcDbPolyline
 90
3
 70
0
 10
55.286178
 20
122.167630
 30
0.0
 10
55.286178
 20
121.921650
 30
0.0
 10
53.717283
 20
121.921650
 30
0.0
  0
SPLINE
  5
239
100
AcDbEntity
  8
Layer_1
 62
7
100
AcDbSpline
 70
8
 71
3
 72
8
 73
4
 74
0
 40
0
 40
0
 40
0
 40
0
 40
1
 40
1
 40
1
 40
1
 10
55.189026
 20
121.074160
 30
0.0
 10
54.907907
 20
120.958407
 30
0.0
 10
54.618519
 20
120.900530
 30
0.0
 10
54.320863
 20
120.900530
 30
0.0
  0
LWPOLYLINE
  5
23a
100
AcDbEntity
  8
Layer_1
 62
7
100
AcDbPolyline
 90
2
 70
0
 10
55.189026
 20
121.630200
 30
0.0
 10
55.189026
 20
121.074160
 30
0.0
  0
SPLINE
  5
23b
100
AcDbEntity
  8
Layer_1
 62
7
100
AcDbSpline
 70
8
 71
3
 72
8
 73
4
 74
0
 40
0
 40
0
 40
0
 40
0
 40
1
 40
1
 40
1
 40
1
 10
54.676397
 20
122.376410
 30
0.0
 10
54.676397
 20
122.536263
 30
0.0
 10
54.637123
 20
122.656840
 30
0.0
 10
54.558574
 20
122.738140
 30
0.0
  0
SPLINE
  5
23c
100
AcDbEntity
  8
Layer_1
 62
7
100
AcDbSpline
 70
8
 71
3
 72
8
 73
4
 74
0
 40
0
 40
0
 40
0
 40
0
 40
1
 40
1
 40
1
 40
1
 10
54.558574
 20
122.738140
 30
0.0
 10
54.480026
 20
122.820827
 30
0.0
 10
54.367716
 20
122.862170
 30
0.0
 10
54.221644
 20
122.862170
 30
0.0
  0
SPLINE
  5
23d
100
AcDbEntity
  8
Layer_1
 62
7
100
AcDbSpline
 70
8
 71
3
 72
8
 73
4
 74
0
 40
0
 40
0
 40
0
 40
0
 40
1
 40
1
 40
1
 40
1
 10
54.221644
 20
122.862170
 30
0.0
 10
54.072816
 20
122.862170
 30
0.0
 10
53.956372
 20
122.820137
 30
0.0
 10
53.872312
 20
122.736070
 30
0.0
  0
SPLINE
  5
23e
100
AcDbEntity
  8
Layer_1
 62
7
100
AcDbSpline
 70
8
 71
3
 72
8
 73
4
 74
0
 40
0
 40
0
 40
0
 40
0
 40
1
 40
1
 40
1
 40
1
 10
53.872312
 20
122.736070
 30
0.0
 10
53.788252
 20
122.652010
 30
0.0
 10
53.738643
 20
122.532123
 30
0.0
 10
53.723484
 20
122.376410
 30
0.0
  0
LWPOLYLINE
  5
23f
100
AcDbEntity
  8
Layer_1
 62
7
100
AcDbPolyline
 90
1
 70
1
 10
54.320863
 20
120.900530
 30
0.0
  0
LWPOLYLINE
  5
240
100
AcDbEntity
  8
Layer_1
 62
7
100
AcDbPolyline
 90
2
 70
0
 10
53.723484
 20
122.376410
 30
0.0
 10
54.676397
 20
122.376410
 30
0.0
  0
LWPOLYLINE
  5
241
100
AcDbEntity
  8
Layer_1
 62
7
100
AcDbPolyline
 90
8
 70
1
 10
58.998610
 20
123.513290
 30
0.0
 10
58.215196
 20
123.513290
 30
0.0
 10
58.215196
 20
124.046590
 30
0.0
 10
60.391806
 20
124.046590
 30
0.0
 10
60.391806
 20
123.513290
 30
0.0
 10
59.608392
 20
123.513290
 30
0.0
 10
59.608392
 20
120.960470
 30
0.0
 10
58.998610
 20
120.960470
 30
0.0
  0
SPLINE
  5
242
100
AcDbEntity
  8
Layer_1
 62
7
100
AcDbSpline
 70
8
 71
3
 72
8
 73
4
 74
0
 40
0
 40
0
 40
0
 40
0
 40
1
 40
1
 40
1
 40
1
 10
61.681644
 20
122.915910
 30
0.0
 10
61.740897
 20
123.046823
 30
0.0
 10
61.831159
 20
123.148797
 30
0.0
 10
61.952429
 20
123.221830
 30
0.0
  0
SPLINE
  5
243
100
AcDbEntity
  8
Layer_1
 62
7
100
AcDbSpline
 70
8
 71
3
 72
8
 73
4
 74
0
 40
0
 40
0
 40
0
 40
0
 40
1
 40
1
 40
1
 40
1
 10
61.952429
 20
123.221830
 30
0.0
 10
62.075074
 20
123.294870
 30
0.0
 10
62.218390
 20
123.331390
 30
0.0
 10
62.382376
 20
123.331390
 30
0.0
  0
SPLINE
  5
244
100
AcDbEntity
  8
Layer_1
 62
7
100
AcDbSpline
 70
8
 71
3
 72
8
 73
4
 74
0
 40
0
 40
0
 40
0
 40
0
 40
1
 40
1
 40
1
 40
1
 10
62.382376
 20
123.331390
 30
0.0
 10
62.551875
 20
123.331390
 30
0.0
 10
62.708971
 20
123.292113
 30
0.0
 10
62.853665
 20
123.213560
 30
0.0
  0
LWPOLYLINE
  5
245
100
AcDbEntity
  8
Layer_1
 62
7
100
AcDbPolyline
 90
3
 70
0
 10
61.076001
 20
123.275580
 30
0.0
 10
61.621704
 20
123.275580
 30
0.0
 10
61.681644
 20
122.915910
 30
0.0
  0
SPLINE
  5
246
100
AcDbEntity
  8
Layer_1
 62
7
100
AcDbSpline
 70
8
 71
3
 72
8
 73
4
 74
0
 40
0
 40
0
 40
0
 40
0
 40
1
 40
1
 40
1
 40
1
 10
62.853665
 20
122.636860
 30
0.0
 10
62.719995
 20
122.758127
 30
0.0
 10
62.544984
 20
122.818760
 30
0.0
 10
62.328633
 20
122.818760
 30
0.0
  0
SPLINE
  5
247
100
AcDbEntity
  8
Layer_1
 62
7
100
AcDbSpline
 70
8
 71
3
 72
8
 73
4
 74
0
 40
0
 40
0
 40
0
 40
0
 40
1
 40
1
 40
1
 40
1
 10
62.328633
 20
122.818760
 30
0.0
 10
62.153622
 20
122.818760
 30
0.0
 10
62.011684
 20
122.778797
 30
0.0
 10
61.902819
 20
122.698870
 30
0.0
  0
SPLINE
  5
248
100
AcDbEntity
  8
Layer_1
 62
7
100
AcDbSpline
 70
8
 71
3
 72
8
 73
4
 74
0
 40
0
 40
0
 40
0
 40
0
 40
1
 40
1
 40
1
 40
1
 10
61.902819
 20
122.698870
 30
0.0
 10
61.793954
 20
122.618943
 30
0.0
 10
61.726431
 20
122.503877
 30
0.0
 10
61.700248
 20
122.353670
 30
0.0
  0
SPLINE
  5
249
100
AcDbEntity
  8
Layer_1
 62
7
100
AcDbSpline
 70
8
 71
3
 72
8
 73
4
 74
0
 40
0
 40
0
 40
0
 40
0
 40
1
 40
1
 40
1
 40
1
 10
61.700248
 20
122.353670
 30
0.0
 10
61.693361
 20
122.317870
 30
0.0
 10
61.688538
 20
122.274460
 30
0.0
 10
61.685778
 20
122.223440
 30
0.0
  0
SPLINE
  5
24a
100
AcDbEntity
  8
Layer_1
 62
7
100
AcDbSpline
 70
8
 71
3
 72
8
 73
4
 74
0
 40
0
 40
0
 40
0
 40
0
 40
1
 40
1
 40
1
 40
1
 10
61.685778
 20
122.223440
 30
0.0
 10
61.683045
 20
122.172440
 30
0.0
 10
61.681678
 20
122.106983
 30
0.0
 10
61.681678
 20
122.027070
 30
0.0
  0
LWPOLYLINE
  5
24b
100
AcDbEntity
  8
Layer_1
 62
7
100
AcDbPolyline
 90
2
 70
0
 10
62.853665
 20
123.213560
 30
0.0
 10
62.853665
 20
122.636860
 30
0.0
  0
SPLINE
  5
24c
100
AcDbEntity
  8
Layer_1
 62
7
100
AcDbSpline
 70
8
 71
3
 72
8
 73
4
 74
0
 40
0
 40
0
 40
0
 40
0
 40
1
 40
1
 40
1
 40
1
 10
64.126975
 20
120.900530
 30
0.0
 10
63.887196
 20
120.900530
 30
0.0
 10
63.692893
 20
120.968743
 30
0.0
 10
63.544065
 20
121.105170
 30
0.0
  0
SPLINE
  5
24d
100
AcDbEntity
  8
Layer_1
 62
7
100
AcDbSpline
 70
8
 71
3
 72
8
 73
4
 74
0
 40
0
 40
0
 40
0
 40
0
 40
1
 40
1
 40
1
 40
1
 10
63.544065
 20
121.105170
 30
0.0
 10
63.396615
 20
121.242970
 30
0.0
 10
63.322890
 20
121.440717
 30
0.0
 10
63.322890
 20
121.698410
 30
0.0
  0
SPLINE
  5
24e
100
AcDbEntity
  8
Layer_1
 62
7
100
AcDbSpline
 70
8
 71
3
 72
8
 73
4
 74
0
 40
0
 40
0
 40
0
 40
0
 40
1
 40
1
 40
1
 40
1
 10
63.322890
 20
121.698410
 30
0.0
 10
63.322890
 20
121.861023
 30
0.0
 10
63.351830
 20
121.993317
 30
0.0
 10
63.409710
 20
122.095290
 30
0.0
  0
SPLINE
  5
24f
100
AcDbEntity
  8
Layer_1
 62
7
100
AcDbSpline
 70
8
 71
3
 72
8
 73
4
 74
0
 40
0
 40
0
 40
0
 40
0
 40
1
 40
1
 40
1
 40
1
 10
63.409710
 20
122.095290
 30
0.0
 10
63.468963
 20
122.198643
 30
0.0
 10
63.548889
 20
122.278570
 30
0.0
 10
63.649488
 20
122.335070
 30
0.0
  0
SPLINE
  5
250
100
AcDbEntity
  8
Layer_1
 62
7
100
AcDbSpline
 70
8
 71
3
 72
8
 73
4
 74
0
 40
0
 40
0
 40
0
 40
0
 40
1
 40
1
 40
1
 40
1
 10
63.649488
 20
122.335070
 30
0.0
 10
63.751463
 20
122.391537
 30
0.0
 10
63.866529
 20
122.430120
 30
0.0
 10
63.994686
 20
122.450820
 30
0.0
  0
SPLINE
  5
251
100
AcDbEntity
  8
Layer_1
 62
7
100
AcDbSpline
 70
8
 71
3
 72
8
 73
4
 74
0
 40
0
 40
0
 40
0
 40
0
 40
1
 40
1
 40
1
 40
1
 10
63.994686
 20
122.450820
 30
0.0
 10
64.122844
 20
122.472887
 30
0.0
 10
64.257203
 20
122.483920
 30
0.0
 10
64.397762
 20
122.483920
 30
0.0
  0
LWPOLYLINE
  5
252
100
AcDbEntity
  8
Layer_1
 62
7
100
AcDbPolyline
 90
4
 70
0
 10
61.681678
 20
122.027070
 30
0.0
 10
61.681678
 20
120.960470
 30
0.0
 10
61.076031
 20
120.960470
 30
0.0
 10
61.076001
 20
123.275580
 30
0.0
  0
SPLINE
  5
253
100
AcDbEntity
  8
Layer_1
 62
7
100
AcDbSpline
 70
8
 71
3
 72
8
 73
4
 74
0
 40
0
 40
0
 40
0
 40
0
 40
1
 40
1
 40
1
 40
1
 10
64.817375
 20
122.585210
 30
0.0
 10
64.817375
 20
122.667890
 30
0.0
 10
64.795325
 20
122.730590
 30
0.0
 10
64.751225
 20
122.773310
 30
0.0
  0
SPLINE
  5
254
100
AcDbEntity
  8
Layer_1
 62
7
100
AcDbSpline
 70
8
 71
3
 72
8
 73
4
 74
0
 40
0
 40
0
 40
0
 40
0
 40
1
 40
1
 40
1
 40
1
 10
64.751225
 20
122.773310
 30
0.0
 10
64.708505
 20
122.816043
 30
0.0
 10
64.652694
 20
122.844977
 30
0.0
 10
64.583793
 20
122.860110
 30
0.0
  0
SPLINE
  5
255
100
AcDbEntity
  8
Layer_1
 62
7
100
AcDbSpline
 70
8
 71
3
 72
8
 73
4
 74
0
 40
0
 40
0
 40
0
 40
0
 40
1
 40
1
 40
1
 40
1
 10
64.583793
 20
122.860110
 30
0.0
 10
64.516270
 20
122.875243
 30
0.0
 10
64.446679
 20
122.882810
 30
0.0
 10
64.375021
 20
122.882810
 30
0.0
  0
SPLINE
  5
256
100
AcDbEntity
  8
Layer_1
 62
7
100
AcDbSpline
 70
8
 71
3
 72
8
 73
4
 74
0
 40
0
 40
0
 40
0
 40
0
 40
1
 40
1
 40
1
 40
1
 10
64.375021
 20
122.882810
 30
0.0
 10
64.228949
 20
122.882810
 30
0.0
 10
64.088389
 20
122.862843
 30
0.0
 10
63.953341
 20
122.822910
 30
0.0
  0
SPLINE
  5
257
100
AcDbEntity
  8
Layer_1
 62
7
100
AcDbSpline
 70
8
 71
3
 72
8
 73
4
 74
0
 40
0
 40
0
 40
0
 40
0
 40
1
 40
1
 40
1
 40
1
 10
63.953341
 20
122.822910
 30
0.0
 10
63.819672
 20
122.782977
 30
0.0
 10
63.686002
 20
122.726477
 30
0.0
 10
63.552333
 20
122.653410
 30
0.0
  0
LWPOLYLINE
  5
258
100
AcDbEntity
  8
Layer_1
 62
7
100
AcDbPolyline
 90
3
 70
0
 10
64.397762
 20
122.483920
 30
0.0
 10
64.817375
 20
122.483920
 30
0.0
 10
64.817375
 20
122.585210
 30
0.0
  0
SPLINE
  5
259
100
AcDbEntity
  8
Layer_1
 62
7
100
AcDbSpline
 70
8
 71
3
 72
8
 73
4
 74
0
 40
0
 40
0
 40
0
 40
0
 40
1
 40
1
 40
1
 40
1
 10
63.552333
 20
123.170180
 30
0.0
 10
63.695648
 20
123.228047
 30
0.0
 10
63.837586
 20
123.269387
 30
0.0
 10
63.978146
 20
123.294200
 30
0.0
  0
SPLINE
  5
25a
100
AcDbEntity
  8
Layer_1
 62
7
100
AcDbSpline
 70
8
 71
3
 72
8
 73
4
 74
0
 40
0
 40
0
 40
0
 40
0
 40
1
 40
1
 40
1
 40
1
 10
63.978146
 20
123.294200
 30
0.0
 10
64.120084
 20
123.320400
 30
0.0
 10
64.263400
 20
123.333500
 30
0.0
 10
64.408094
 20
123.333500
 30
0.0
  0
SPLINE
  5
25b
100
AcDbEntity
  8
Layer_1
 62
7
100
AcDbSpline
 70
8
 71
3
 72
8
 73
4
 74
0
 40
0
 40
0
 40
0
 40
0
 40
1
 40
1
 40
1
 40
1
 10
64.408094
 20
123.333500
 30
0.0
 10
64.661653
 20
123.333500
 30
0.0
 10
64.862157
 20
123.296983
 30
0.0
 10
65.009607
 20
123.223950
 30
0.0
  0
SPLINE
  5
25c
100
AcDbEntity
  8
Layer_1
 62
7
100
AcDbSpline
 70
8
 71
3
 72
8
 73
4
 74
0
 40
0
 40
0
 40
0
 40
0
 40
1
 40
1
 40
1
 40
1
 10
65.009607
 20
123.223950
 30
0.0
 10
65.157057
 20
123.152290
 30
0.0
 10
65.261788
 20
123.040670
 30
0.0
 10
65.323799
 20
122.889090
 30
0.0
  0
SPLINE
  5
25d
100
AcDbEntity
  8
Layer_1
 62
7
100
AcDbSpline
 70
8
 71
3
 72
8
 73
4
 74
0
 40
0
 40
0
 40
0
 40
0
 40
1
 40
1
 40
1
 40
1
 10
65.323799
 20
122.889090
 30
0.0
 10
65.387186
 20
122.738883
 30
0.0
 10
65.418879
 20
122.547337
 30
0.0
 10
65.418879
 20
122.314450
 30
0.0
  0
SPLINE
  5
25e
100
AcDbEntity
  8
Layer_1
 62
7
100
AcDbSpline
 70
8
 71
3
 72
8
 73
4
 74
0
 40
0
 40
0
 40
0
 40
0
 40
1
 40
1
 40
1
 40
1
 10
65.418879
 20
122.314450
 30
0.0
 10
65.418879
 20
122.260717
 30
0.0
 10
65.417512
 20
122.191813
 30
0.0
 10
65.414779
 20
122.107740
 30
0.0
  0
SPLINE
  5
25f
100
AcDbEntity
  8
Layer_1
 62
7
100
AcDbSpline
 70
8
 71
3
 72
8
 73
4
 74
0
 40
0
 40
0
 40
0
 40
0
 40
1
 40
1
 40
1
 40
1
 10
65.414779
 20
122.107740
 30
0.0
 10
65.413379
 20
122.023680
 30
0.0
 10
65.412679
 20
121.939620
 30
0.0
 10
65.412679
 20
121.855560
 30
0.0
  0
SPLINE
  5
260
100
AcDbEntity
  8
Layer_1
 62
7
100
AcDbSpline
 70
8
 71
3
 72
8
 73
4
 74
0
 40
0
 40
0
 40
0
 40
0
 40
1
 40
1
 40
1
 40
1
 10
65.412679
 20
121.855560
 30
0.0
 10
65.412679
 20
121.781147
 30
0.0
 10
65.411979
 20
121.710867
 30
0.0
 10
65.410579
 20
121.644720
 30
0.0
  0
SPLINE
  5
261
100
AcDbEntity
  8
Layer_1
 62
7
100
AcDbSpline
 70
8
 71
3
 72
8
 73
4
 74
0
 40
0
 40
0
 40
0
 40
0
 40
1
 40
1
 40
1
 40
1
 10
65.410579
 20
121.644720
 30
0.0
 10
65.409179
 20
121.578587
 30
0.0
 10
65.408479
 20
121.522777
 30
0.0
 10
65.408479
 20
121.477290
 30
0.0
  0
SPLINE
  5
262
100
AcDbEntity
  8
Layer_1
 62
7
100
AcDbSpline
 70
8
 71
3
 72
8
 73
4
 74
0
 40
0
 40
0
 40
0
 40
0
 40
1
 40
1
 40
1
 40
1
 10
65.408479
 20
121.477290
 30
0.0
 10
65.408479
 20
121.437357
 30
0.0
 10
65.410546
 20
121.384990
 30
0.0
 10
65.414679
 20
121.320190
 30
0.0
  0
SPLINE
  5
263
100
AcDbEntity
  8
Layer_1
 62
7
100
AcDbSpline
 70
8
 71
3
 72
8
 73
4
 74
0
 40
0
 40
0
 40
0
 40
0
 40
1
 40
1
 40
1
 40
1
 10
65.414679
 20
121.320190
 30
0.0
 10
65.418812
 20
121.256790
 30
0.0
 10
65.428459
 20
121.192023
 30
0.0
 10
65.443619
 20
121.125890
 30
0.0
  0
SPLINE
  5
264
100
AcDbEntity
  8
Layer_1
 62
7
100
AcDbSpline
 70
8
 71
3
 72
8
 73
4
 74
0
 40
0
 40
0
 40
0
 40
0
 40
1
 40
1
 40
1
 40
1
 10
65.443619
 20
121.125890
 30
0.0
 10
65.458779
 20
121.059757
 30
0.0
 10
65.482206
 20
121.004633
 30
0.0
 10
65.513899
 20
120.960520
 30
0.0
  0
LWPOLYLINE
  5
265
100
AcDbEntity
  8
Layer_1
 62
7
100
AcDbPolyline
 90
2
 70
0
 10
63.552333
 20
122.653410
 30
0.0
 10
63.552333
 20
123.170180
 30
0.0
  0
SPLINE
  5
266
100
AcDbEntity
  8
Layer_1
 62
7
100
AcDbSpline
 70
8
 71
3
 72
8
 73
4
 74
0
 40
0
 40
0
 40
0
 40
0
 40
1
 40
1
 40
1
 40
1
 10
64.914453
 20
120.960520
 30
0.0
 10
64.888273
 20
121.004653
 30
0.0
 10
64.868980
 20
121.045997
 30
0.0
 10
64.856573
 20
121.084550
 30
0.0
  0
SPLINE
  5
267
100
AcDbEntity
  8
Layer_1
 62
7
100
AcDbSpline
 70
8
 71
3
 72
8
 73
4
 74
0
 40
0
 40
0
 40
0
 40
0
 40
1
 40
1
 40
1
 40
1
 10
64.856573
 20
121.084550
 30
0.0
 10
64.844173
 20
121.123150
 30
0.0
 10
64.835216
 20
121.167937
 30
0.0
 10
64.829703
 20
121.218910
 30
0.0
  0
SPLINE
  5
268
100
AcDbEntity
  8
Layer_1
 62
7
100
AcDbSpline
 70
8
 71
3
 72
8
 73
4
 74
0
 40
0
 40
0
 40
0
 40
0
 40
1
 40
1
 40
1
 40
1
 10
64.829703
 20
121.218910
 30
0.0
 10
64.748399
 20
121.110043
 30
0.0
 10
64.646424
 20
121.029427
 30
0.0
 10
64.523779
 20
120.977060
 30
0.0
  0
SPLINE
  5
269
100
AcDbEntity
  8
Layer_1
 62
7
100
AcDbSpline
 70
8
 71
3
 72
8
 73
4
 74
0
 40
0
 40
0
 40
0
 40
0
 40
1
 40
1
 40
1
 40
1
 10
64.523779
 20
120.977060
 30
0.0
 10
64.402512
 20
120.926060
 30
0.0
 10
64.270220
 20
120.900560
 30
0.0
 10
64.126904
 20
120.900560
 30
0.0
  0
LWPOLYLINE
  5
26a
100
AcDbEntity
  8
Layer_1
 62
7
100
AcDbPolyline
 90
2
 70
0
 10
65.513899
 20
120.960520
 30
0.0
 10
64.914453
 20
120.960520
 30
0.0
  0
SPLINE
  5
26b
100
AcDbEntity
  8
Layer_1
 62
7
100
AcDbSpline
 70
8
 71
3
 72
8
 73
4
 74
0
 40
0
 40
0
 40
0
 40
0
 40
1
 40
1
 40
1
 40
1
 10
64.325412
 20
121.320140
 30
0.0
 10
64.452191
 20
121.320140
 30
0.0
 10
64.550721
 20
121.354590
 30
0.0
 10
64.621001
 20
121.423490
 30
0.0
  0
SPLINE
  5
26c
100
AcDbEntity
  8
Layer_1
 62
7
100
AcDbSpline
 70
8
 71
3
 72
8
 73
4
 74
0
 40
0
 40
0
 40
0
 40
0
 40
1
 40
1
 40
1
 40
1
 10
64.621001
 20
121.423490
 30
0.0
 10
64.692659
 20
121.493770
 30
0.0
 10
64.742957
 20
121.581277
 30
0.0
 10
64.771896
 20
121.686010
 30
0.0
  0
SPLINE
  5
26d
100
AcDbEntity
  8
Layer_1
 62
7
100
AcDbSpline
 70
8
 71
3
 72
8
 73
4
 74
0
 40
0
 40
0
 40
0
 40
0
 40
1
 40
1
 40
1
 40
1
 10
64.771896
 20
121.686010
 30
0.0
 10
64.802216
 20
121.792117
 30
0.0
 10
64.817376
 20
121.898913
 30
0.0
 10
64.817376
 20
122.006400
 30
0.0
  0
LWPOLYLINE
  5
26e
100
AcDbEntity
  8
Layer_1
 62
7
100
AcDbPolyline
 90
1
 70
1
 10
64.126904
 20
120.900560
 30
0.0
  0
SPLINE
  5
26f
100
AcDbEntity
  8
Layer_1
 62
7
100
AcDbSpline
 70
8
 71
3
 72
8
 73
4
 74
0
 40
0
 40
0
 40
0
 40
0
 40
1
 40
1
 40
1
 40
1
 10
64.575530
 20
122.047700
 30
0.0
 10
64.480445
 20
122.047700
 30
0.0
 10
64.386050
 20
122.040800
 30
0.0
 10
64.292343
 20
122.027000
 30
0.0
  0
SPLINE
  5
270
100
AcDbEntity
  8
Layer_1
 62
7
100
AcDbSpline
 70
8
 71
3
 72
8
 73
4
 74
0
 40
0
 40
0
 40
0
 40
0
 40
1
 40
1
 40
1
 40
1
 10
64.292343
 20
122.027000
 30
0.0
 10
64.198637
 20
122.014600
 30
0.0
 10
64.120778
 20
121.982233
 30
0.0
 10
64.058766
 20
121.929900
 30
0.0
  0
SPLINE
  5
271
100
AcDbEntity
  8
Layer_1
 62
7
100
AcDbSpline
 70
8
 71
3
 72
8
 73
4
 74
0
 40
0
 40
0
 40
0
 40
0
 40
1
 40
1
 40
1
 40
1
 10
64.058766
 20
121.929900
 30
0.0
 10
63.998133
 20
121.878900
 30
0.0
 10
63.967816
 20
121.794153
 30
0.0
 10
63.967816
 20
121.675660
 30
0.0
  0
SPLINE
  5
272
100
AcDbEntity
  8
Layer_1
 62
7
100
AcDbSpline
 70
8
 71
3
 72
8
 73
4
 74
0
 40
0
 40
0
 40
0
 40
0
 40
1
 40
1
 40
1
 40
1
 10
63.967816
 20
121.675660
 30
0.0
 10
63.967816
 20
121.562660
 30
0.0
 10
63.998823
 20
121.475153
 30
0.0
 10
64.060836
 20
121.413140
 30
0.0
  0
SPLINE
  5
273
100
AcDbEntity
  8
Layer_1
 62
7
100
AcDbSpline
 70
8
 71
3
 72
8
 73
4
 74
0
 40
0
 40
0
 40
0
 40
0
 40
1
 40
1
 40
1
 40
1
 10
64.060836
 20
121.413140
 30
0.0
 10
64.124223
 20
121.351140
 30
0.0
 10
64.212417
 20
121.320140
 30
0.0
 10
64.325419
 20
121.320140
 30
0.0
  0
LWPOLYLINE
  5
274
100
AcDbEntity
  8
Layer_1
 62
7
100
AcDbPolyline
 90
3
 70
0
 10
64.817376
 20
122.006400
 30
0.0
 10
64.817376
 20
122.047700
 30
0.0
 10
64.575530
 20
122.047700
 30
0.0
  0
SPLINE
  5
275
100
AcDbEntity
  8
Layer_1
 62
7
100
AcDbSpline
 70
8
 71
3
 72
8
 73
4
 74
0
 40
0
 40
0
 40
0
 40
0
 40
1
 40
1
 40
1
 40
1
 10
67.140742
 20
120.900530
 30
0.0
 10
66.774184
 20
120.900530
 30
0.0
 10
66.488930
 20
121.007327
 30
0.0
 10
66.284981
 20
121.220920
 30
0.0
  0
SPLINE
  5
276
100
AcDbEntity
  8
Layer_1
 62
7
100
AcDbSpline
 70
8
 71
3
 72
8
 73
4
 74
0
 40
0
 40
0
 40
0
 40
0
 40
1
 40
1
 40
1
 40
1
 10
66.284981
 20
121.220920
 30
0.0
 10
66.082410
 20
121.434520
 30
0.0
 10
65.981124
 20
121.732177
 30
0.0
 10
65.981124
 20
122.113890
 30
0.0
  0
SPLINE
  5
277
100
AcDbEntity
  8
Layer_1
 62
7
100
AcDbSpline
 70
8
 71
3
 72
8
 73
4
 74
0
 40
0
 40
0
 40
0
 40
0
 40
1
 40
1
 40
1
 40
1
 10
65.981124
 20
122.113890
 30
0.0
 10
65.981124
 20
122.496983
 30
0.0
 10
66.081721
 20
122.796017
 30
0.0
 10
66.282914
 20
123.010990
 30
0.0
  0
SPLINE
  5
278
100
AcDbEntity
  8
Layer_1
 62
7
100
AcDbSpline
 70
8
 71
3
 72
8
 73
4
 74
0
 40
0
 40
0
 40
0
 40
0
 40
1
 40
1
 40
1
 40
1
 10
66.282914
 20
123.010990
 30
0.0
 10
66.484107
 20
123.227343
 30
0.0
 10
66.763849
 20
123.335520
 30
0.0
 10
67.122138
 20
123.335520
 30
0.0
  0
SPLINE
  5
279
100
AcDbEntity
  8
Layer_1
 62
7
100
AcDbSpline
 70
8
 71
3
 72
8
 73
4
 74
0
 40
0
 40
0
 40
0
 40
0
 40
1
 40
1
 40
1
 40
1
 10
67.122138
 20
123.335520
 30
0.0
 10
67.367429
 20
123.335520
 30
0.0
 10
67.602384
 20
123.276263
 30
0.0
 10
67.827004
 20
123.157750
 30
0.0
  0
LWPOLYLINE
  5
27a
100
AcDbEntity
  8
Layer_1
 62
7
100
AcDbPolyline
 90
1
 70
1
 10
64.325419
 20
121.320140
 30
0.0
  0
SPLINE
  5
27b
100
AcDbEntity
  8
Layer_1
 62
7
100
AcDbSpline
 70
8
 71
3
 72
8
 73
4
 74
0
 40
0
 40
0
 40
0
 40
0
 40
1
 40
1
 40
1
 40
1
 10
67.827004
 20
122.603780
 30
0.0
 10
67.647859
 20
122.760880
 30
0.0
 10
67.445977
 20
122.839430
 30
0.0
 10
67.221357
 20
122.839430
 30
0.0
  0
SPLINE
  5
27c
100
AcDbEntity
  8
Layer_1
 62
7
100
AcDbSpline
 70
8
 71
3
 72
8
 73
4
 74
0
 40
0
 40
0
 40
0
 40
0
 40
1
 40
1
 40
1
 40
1
 10
67.221357
 20
122.839430
 30
0.0
 10
67.018786
 20
122.839430
 30
0.0
 10
66.863756
 20
122.776730
 30
0.0
 10
66.756269
 20
122.651330
 30
0.0
  0
SPLINE
  5
27d
100
AcDbEntity
  8
Layer_1
 62
7
100
AcDbSpline
 70
8
 71
3
 72
8
 73
4
 74
0
 40
0
 40
0
 40
0
 40
0
 40
1
 40
1
 40
1
 40
1
 10
66.756269
 20
122.651330
 30
0.0
 10
66.648782
 20
122.525923
 30
0.0
 10
66.595039
 20
122.347467
 30
0.0
 10
66.595039
 20
122.115960
 30
0.0
  0
SPLINE
  5
27e
100
AcDbEntity
  8
Layer_1
 62
7
100
AcDbSpline
 70
8
 71
3
 72
8
 73
4
 74
0
 40
0
 40
0
 40
0
 40
0
 40
1
 40
1
 40
1
 40
1
 10
66.595039
 20
122.115960
 30
0.0
 10
66.595039
 20
121.885827
 30
0.0
 10
66.648093
 20
121.708060
 30
0.0
 10
66.754202
 20
121.582660
 30
0.0
  0
SPLINE
  5
27f
100
AcDbEntity
  8
Layer_1
 62
7
100
AcDbSpline
 70
8
 71
3
 72
8
 73
4
 74
0
 40
0
 40
0
 40
0
 40
0
 40
1
 40
1
 40
1
 40
1
 10
66.754202
 20
121.582660
 30
0.0
 10
66.861689
 20
121.458633
 30
0.0
 10
67.014652
 20
121.396620
 30
0.0
 10
67.213089
 20
121.396620
 30
0.0
  0
SPLINE
  5
280
100
AcDbEntity
  8
Layer_1
 62
7
100
AcDbSpline
 70
8
 71
3
 72
8
 73
4
 74
0
 40
0
 40
0
 40
0
 40
0
 40
1
 40
1
 40
1
 40
1
 10
67.213089
 20
121.396620
 30
0.0
 10
67.448733
 20
121.396620
 30
0.0
 10
67.653371
 20
121.475857
 30
0.0
 10
67.827004
 20
121.634330
 30
0.0
  0
LWPOLYLINE
  5
281
100
AcDbEntity
  8
Layer_1
 62
7
100
AcDbPolyline
 90
2
 70
0
 10
67.827004
 20
123.157750
 30
0.0
 10
67.827004
 20
122.603780
 30
0.0
  0
SPLINE
  5
282
100
AcDbEntity
  8
Layer_1
 62
7
100
AcDbSpline
 70
8
 71
3
 72
8
 73
4
 74
0
 40
0
 40
0
 40
0
 40
0
 40
1
 40
1
 40
1
 40
1
 10
67.827004
 20
121.078300
 30
0.0
 10
67.621677
 20
120.959787
 30
0.0
 10
67.392923
 20
120.900530
 30
0.0
 10
67.140742
 20
120.900530
 30
0.0
  0
LWPOLYLINE
  5
283
100
AcDbEntity
  8
Layer_1
 62
7
100
AcDbPolyline
 90
2
 70
0
 10
67.827004
 20
121.634330
 30
0.0
 10
67.827004
 20
121.078300
 30
0.0
  0
LWPOLYLINE
  5
284
100
AcDbEntity
  8
Layer_1
 62
7
100
AcDbPolyline
 90
1
 70
1
 10
67.140742
 20
120.900530
 30
0.0
  0
SPLINE
  5
285
100
AcDbEntity
  8
Layer_1
 62
7
100
AcDbSpline
 70
8
 71
3
 72
8
 73
4
 74
0
 40
0
 40
0
 40
0
 40
0
 40
1
 40
1
 40
1
 40
1
 10
71.704802
 20
123.550490
 30
0.0
 10
71.663462
 20
123.550490
 30
0.0
 10
71.642792
 20
123.571157
 30
0.0
 10
71.642792
 20
123.612490
 30
0.0
  0
LWPOLYLINE
  5
286
100
AcDbEntity
  8
Layer_1
 62
7
100
AcDbPolyline
 90
12
 70
1
 10
68.583546
 20
124.176810
 30
0.0
 10
69.189194
 20
124.176810
 30
0.0
 10
69.189194
 20
122.488030
 30
0.0
 10
69.916797
 20
123.275580
 30
0.0
 10
70.650602
 20
123.275580
 30
0.0
 10
69.774170
 20
122.411550
 30
0.0
 10
70.700211
 20
120.960470
 30
0.0
 10
70.030485
 20
120.960470
 30
0.0
 10
69.395899
 20
122.043610
 30
0.0
 10
69.189194
 20
121.845170
 30
0.0
 10
69.189194
 20
120.960470
 30
0.0
 10
68.583546
 20
120.960470
 30
0.0
  0
SPLINE
  5
287
100
AcDbEntity
  8
Layer_1
 62
7
100
AcDbSpline
 70
8
 71
3
 72
8
 73
4
 74
0
 40
0
 40
0
 40
0
 40
0
 40
1
 40
1
 40
1
 40
1
 10
71.642792
 20
124.195400
 30
0.0
 10
71.642792
 20
124.236733
 30
0.0
 10
71.663462
 20
124.257400
 30
0.0
 10
71.704802
 20
124.257400
 30
0.0
  0
LWPOLYLINE
  5
288
100
AcDbEntity
  8
Layer_1
 62
7
100
AcDbPolyline
 90
2
 70
0
 10
71.642792
 20
123.612490
 30
0.0
 10
71.642792
 20
124.195400
 30
0.0
  0
SPLINE
  5
289
100
AcDbEntity
  8
Layer_1
 62
7
100
AcDbSpline
 70
8
 71
3
 72
8
 73
4
 74
0
 40
0
 40
0
 40
0
 40
0
 40
1
 40
1
 40
1
 40
1
 10
72.186426
 20
124.257400
 30
0.0
 10
72.227766
 20
124.257400
 30
0.0
 10
72.248436
 20
124.236733
 30
0.0
 10
72.248436
 20
124.195400
 30
0.0
  0
LWPOLYLINE
  5
28a
100
AcDbEntity
  8
Layer_1
 62
7
100
AcDbPolyline
 90
2
 70
0
 10
71.704802
 20
124.257400
 30
0.0
 10
72.186426
 20
124.257400
 30
0.0
  0
SPLINE
  5
28b
100
AcDbEntity
  8
Layer_1
 62
7
100
AcDbSpline
 70
8
 71
3
 72
8
 73
4
 74
0
 40
0
 40
0
 40
0
 40
0
 40
1
 40
1
 40
1
 40
1
 10
72.248436
 20
123.612490
 30
0.0
 10
72.248436
 20
123.571157
 30
0.0
 10
72.227766
 20
123.550490
 30
0.0
 10
72.186426
 20
123.550490
 30
0.0
  0
LWPOLYLINE
  5
28c
100
AcDbEntity
  8
Layer_1
 62
7
100
AcDbPolyline
 90
2
 70
0
 10
72.248436
 20
124.195400
 30
0.0
 10
72.248436
 20
123.612490
 30
0.0
  0
SPLINE
  5
28d
100
AcDbEntity
  8
Layer_1
 62
7
100
AcDbSpline
 70
8
 71
3
 72
8
 73
4
 74
0
 40
0
 40
0
 40
0
 40
0
 40
1
 40
1
 40
1
 40
1
 10
72.451009
 20
120.935670
 30
0.0
 10
72.164378
 20
120.935670
 30
0.0
 10
71.957672
 20
121.010773
 30
0.0
 10
71.830892
 20
121.160980
 30
0.0
  0
SPLINE
  5
28e
100
AcDbEntity
  8
Layer_1
 62
7
100
AcDbSpline
 70
8
 71
3
 72
8
 73
4
 74
0
 40
0
 40
0
 40
0
 40
0
 40
1
 40
1
 40
1
 40
1
 10
71.830892
 20
121.160980
 30
0.0
 10
71.705491
 20
121.312560
 30
0.0
 10
71.642790
 20
121.559227
 30
0.0
 10
71.642790
 20
121.900980
 30
0.0
  0
LWPOLYLINE
  5
28f
100
AcDbEntity
  8
Layer_1
 62
7
100
AcDbPolyline
 90
2
 70
0
 10
72.186426
 20
123.550490
 30
0.0
 10
71.704802
 20
123.550490
 30
0.0
  0
SPLINE
  5
290
100
AcDbEntity
  8
Layer_1
 62
7
100
AcDbSpline
 70
8
 71
3
 72
8
 73
4
 74
0
 40
0
 40
0
 40
0
 40
0
 40
1
 40
1
 40
1
 40
1
 10
72.248438
 20
121.900980
 30
0.0
 10
72.248438
 20
121.721840
 30
0.0
 10
72.276688
 20
121.593683
 30
0.0
 10
72.333188
 20
121.516510
 30
0.0
  0
SPLINE
  5
291
100
AcDbEntity
  8
Layer_1
 62
7
100
AcDbSpline
 70
8
 71
3
 72
8
 73
4
 74
0
 40
0
 40
0
 40
0
 40
0
 40
1
 40
1
 40
1
 40
1
 10
72.333188
 20
121.516510
 30
0.0
 10
72.391068
 20
121.439343
 30
0.0
 10
72.486842
 20
121.400760
 30
0.0
 10
72.620509
 20
121.400760
 30
0.0
  0
LWPOLYLINE
  5
292
100
AcDbEntity
  8
Layer_1
 62
7
100
AcDbPolyline
 90
6
 70
0
 10
71.642790
 20
121.900980
 30
0.0
 10
71.642790
 20
122.810490
 30
0.0
 10
71.152898
 20
122.810490
 30
0.0
 10
71.152898
 20
123.275580
 30
0.0
 10
72.248438
 20
123.275580
 30
0.0
 10
72.248438
 20
121.900980
 30
0.0
  0
LWPOLYLINE
  5
293
100
AcDbEntity
  8
Layer_1
 62
7
100
AcDbPolyline
 90
4
 70
0
 10
72.620509
 20
121.400760
 30
0.0
 10
73.104200
 20
121.400760
 30
0.0
 10
73.104200
 20
120.935670
 30
0.0
 10
72.451009
 20
120.935670
 30
0.0
  0
SPLINE
  5
294
100
AcDbEntity
  8
Layer_1
 62
7
100
AcDbSpline
 70
8
 71
3
 72
8
 73
4
 74
0
 40
0
 40
0
 40
0
 40
0
 40
1
 40
1
 40
1
 40
1
 10
74.278281
 20
122.928310
 30
0.0
 10
74.321001
 20
123.057843
 30
0.0
 10
74.394037
 20
123.157063
 30
0.0
 10
74.497389
 20
123.225970
 30
0.0
  0
SPLINE
  5
295
100
AcDbEntity
  8
Layer_1
 62
7
100
AcDbSpline
 70
8
 71
3
 72
8
 73
4
 74
0
 40
0
 40
0
 40
0
 40
0
 40
1
 40
1
 40
1
 40
1
 10
74.497389
 20
123.225970
 30
0.0
 10
74.602120
 20
123.296250
 30
0.0
 10
74.728899
 20
123.331390
 30
0.0
 10
74.877727
 20
123.331390
 30
0.0
  0
SPLINE
  5
296
100
AcDbEntity
  8
Layer_1
 62
7
100
AcDbSpline
 70
8
 71
3
 72
8
 73
4
 74
0
 40
0
 40
0
 40
0
 40
0
 40
1
 40
1
 40
1
 40
1
 10
74.877727
 20
123.331390
 30
0.0
 10
75.092701
 20
123.331390
 30
0.0
 10
75.255998
 20
123.257663
 30
0.0
 10
75.367619
 20
123.110210
 30
0.0
  0
SPLINE
  5
297
100
AcDbEntity
  8
Layer_1
 62
7
100
AcDbSpline
 70
8
 71
3
 72
8
 73
4
 74
0
 40
0
 40
0
 40
0
 40
0
 40
1
 40
1
 40
1
 40
1
 10
75.367619
 20
123.110210
 30
0.0
 10
75.479240
 20
122.962763
 30
0.0
 10
75.535051
 20
122.747100
 30
0.0
 10
75.535051
 20
122.463220
 30
0.0
  0
LWPOLYLINE
  5
298
100
AcDbEntity
  8
Layer_1
 62
7
100
AcDbPolyline
 90
3
 70
0
 10
73.676773
 20
123.275580
 30
0.0
 10
74.218341
 20
123.275580
 30
0.0
 10
74.278281
 20
122.928310
 30
0.0
  0
SPLINE
  5
299
100
AcDbEntity
  8
Layer_1
 62
7
100
AcDbSpline
 70
8
 71
3
 72
8
 73
4
 74
0
 40
0
 40
0
 40
0
 40
0
 40
1
 40
1
 40
1
 40
1
 10
74.933538
 20
122.370210
 30
0.0
 10
74.933538
 20
122.532817
 30
0.0
 10
74.910111
 20
122.651327
 30
0.0
 10
74.863258
 20
122.725740
 30
0.0
  0
SPLINE
  5
29a
100
AcDbEntity
  8
Layer_1
 62
7
100
AcDbSpline
 70
8
 71
3
 72
8
 73
4
 74
0
 40
0
 40
0
 40
0
 40
0
 40
1
 40
1
 40
1
 40
1
 10
74.863258
 20
122.725740
 30
0.0
 10
74.817785
 20
122.801533
 30
0.0
 10
74.746816
 20
122.839430
 30
0.0
 10
74.650351
 20
122.839430
 30
0.0
  0
SPLINE
  5
29b
100
AcDbEntity
  8
Layer_1
 62
7
100
AcDbSpline
 70
8
 71
3
 72
8
 73
4
 74
0
 40
0
 40
0
 40
0
 40
0
 40
1
 40
1
 40
1
 40
1
 10
74.650351
 20
122.839430
 30
0.0
 10
74.533218
 20
122.839430
 30
0.0
 10
74.441578
 20
122.789820
 30
0.0
 10
74.375433
 20
122.690600
 30
0.0
  0
SPLINE
  5
29c
100
AcDbEntity
  8
Layer_1
 62
7
100
AcDbSpline
 70
8
 71
3
 72
8
 73
4
 74
0
 40
0
 40
0
 40
0
 40
0
 40
1
 40
1
 40
1
 40
1
 10
74.375433
 20
122.690600
 30
0.0
 10
74.310666
 20
122.591380
 30
0.0
 10
74.278283
 20
122.456333
 30
0.0
 10
74.278283
 20
122.285460
 30
0.0
  0
LWPOLYLINE
  5
29d
100
AcDbEntity
  8
Layer_1
 62
7
100
AcDbPolyline
 90
4
 70
0
 10
75.535051
 20
122.463220
 30
0.0
 10
75.535051
 20
120.960470
 30
0.0
 10
74.933538
 20
120.960470
 30
0.0
 10
74.933538
 20
122.370210
 30
0.0
  0
SPLINE
  5
29e
100
AcDbEntity
  8
Layer_1
 62
7
100
AcDbSpline
 70
8
 71
3
 72
8
 73
4
 74
0
 40
0
 40
0
 40
0
 40
0
 40
1
 40
1
 40
1
 40
1
 10
77.075012
 20
120.084040
 30
0.0
 10
76.813185
 20
120.084040
 30
0.0
 10
76.559627
 20
120.121937
 30
0.0
 10
76.314336
 20
120.197730
 30
0.0
  0
LWPOLYLINE
  5
29f
100
AcDbEntity
  8
Layer_1
 62
7
100
AcDbPolyline
 90
4
 70
0
 10
74.278283
 20
122.285460
 30
0.0
 10
74.278283
 20
120.960470
 30
0.0
 10
73.676770
 20
120.960470
 30
0.0
 10
73.676773
 20
123.275580
 30
0.0
  0
SPLINE
  5
2a0
100
AcDbEntity
  8
Layer_1
 62
7
100
AcDbSpline
 70
8
 71
3
 72
8
 73
4
 74
0
 40
0
 40
0
 40
0
 40
0
 40
1
 40
1
 40
1
 40
1
 10
76.314336
 20
120.753770
 30
0.0
 10
76.537578
 20
120.629743
 30
0.0
 10
76.770466
 20
120.567730
 30
0.0
 10
77.013000
 20
120.567730
 30
0.0
  0
SPLINE
  5
2a1
100
AcDbEntity
  8
Layer_1
 62
7
100
AcDbSpline
 70
8
 71
3
 72
8
 73
4
 74
0
 40
0
 40
0
 40
0
 40
0
 40
1
 40
1
 40
1
 40
1
 10
77.013000
 20
120.567730
 30
0.0
 10
77.193523
 20
120.567730
 30
0.0
 10
77.324437
 20
120.607693
 30
0.0
 10
77.405741
 20
120.687620
 30
0.0
  0
SPLINE
  5
2a2
100
AcDbEntity
  8
Layer_1
 62
7
100
AcDbSpline
 70
8
 71
3
 72
8
 73
4
 74
0
 40
0
 40
0
 40
0
 40
0
 40
1
 40
1
 40
1
 40
1
 10
77.405741
 20
120.687620
 30
0.0
 10
77.488423
 20
120.767547
 30
0.0
 10
77.529764
 20
120.893637
 30
0.0
 10
77.529764
 20
121.065890
 30
0.0
  0
LWPOLYLINE
  5
2a3
100
AcDbEntity
  8
Layer_1
 62
7
100
AcDbPolyline
 90
2
 70
0
 10
76.314336
 20
120.197730
 30
0.0
 10
76.314336
 20
120.753770
 30
0.0
  0
SPLINE
  5
2a4
100
AcDbEntity
  8
Layer_1
 62
7
100
AcDbSpline
 70
8
 71
3
 72
8
 73
4
 74
0
 40
0
 40
0
 40
0
 40
0
 40
1
 40
1
 40
1
 40
1
 10
77.529764
 20
121.316010
 30
0.0
 10
77.411253
 20
121.098277
 30
0.0
 10
77.215572
 20
120.989410
 30
0.0
 10
76.942721
 20
120.989410
 30
0.0
  0
SPLINE
  5
2a5
100
AcDbEntity
  8
Layer_1
 62
7
100
AcDbSpline
 70
8
 71
3
 72
8
 73
4
 74
0
 40
0
 40
0
 40
0
 40
0
 40
1
 40
1
 40
1
 40
1
 10
76.942721
 20
120.989410
 30
0.0
 10
76.780112
 20
120.989410
 30
0.0
 10
76.642998
 20
121.022477
 30
0.0
 10
76.531377
 20
121.088610
 30
0.0
  0
SPLINE
  5
2a6
100
AcDbEntity
  8
Layer_1
 62
7
100
AcDbSpline
 70
8
 71
3
 72
8
 73
4
 74
0
 40
0
 40
0
 40
0
 40
0
 40
1
 40
1
 40
1
 40
1
 10
76.531377
 20
121.088610
 30
0.0
 10
76.421134
 20
121.156137
 30
0.0
 10
76.332250
 20
121.245020
 30
0.0
 10
76.264726
 20
121.355260
 30
0.0
  0
SPLINE
  5
2a7
100
AcDbEntity
  8
Layer_1
 62
7
100
AcDbSpline
 70
8
 71
3
 72
8
 73
4
 74
0
 40
0
 40
0
 40
0
 40
0
 40
1
 40
1
 40
1
 40
1
 10
76.264726
 20
121.355260
 30
0.0
 10
76.197203
 20
121.466880
 30
0.0
 10
76.148282
 20
121.590213
 30
0.0
 10
76.117965
 20
121.725260
 30
0.0
  0
SPLINE
  5
2a8
100
AcDbEntity
  8
Layer_1
 62
7
100
AcDbSpline
 70
8
 71
3
 72
8
 73
4
 74
0
 40
0
 40
0
 40
0
 40
0
 40
1
 40
1
 40
1
 40
1
 10
76.117965
 20
121.725260
 30
0.0
 10
76.087652
 20
121.860313
 30
0.0
 10
76.072495
 20
121.996740
 30
0.0
 10
76.072495
 20
122.134540
 30
0.0
  0
SPLINE
  5
2a9
100
AcDbEntity
  8
Layer_1
 62
7
100
AcDbSpline
 70
8
 71
3
 72
8
 73
4
 74
0
 40
0
 40
0
 40
0
 40
0
 40
1
 40
1
 40
1
 40
1
 10
76.072495
 20
122.134540
 30
0.0
 10
76.072495
 20
122.269587
 30
0.0
 10
76.086965
 20
122.406703
 30
0.0
 10
76.115905
 20
122.545890
 30
0.0
  0
SPLINE
  5
2aa
100
AcDbEntity
  8
Layer_1
 62
7
100
AcDbSpline
 70
8
 71
3
 72
8
 73
4
 74
0
 40
0
 40
0
 40
0
 40
0
 40
1
 40
1
 40
1
 40
1
 10
76.115905
 20
122.545890
 30
0.0
 10
76.144845
 20
122.686450
 30
0.0
 10
76.191698
 20
122.816673
 30
0.0
 10
76.256465
 20
122.936560
 30
0.0
  0
SPLINE
  5
2ab
100
AcDbEntity
  8
Layer_1
 62
7
100
AcDbSpline
 70
8
 71
3
 72
8
 73
4
 74
0
 40
0
 40
0
 40
0
 40
0
 40
1
 40
1
 40
1
 40
1
 10
76.256465
 20
122.936560
 30
0.0
 10
76.322612
 20
123.056447
 30
0.0
 10
76.409428
 20
123.152910
 30
0.0
 10
76.516914
 20
123.225950
 30
0.0
  0
SPLINE
  5
2ac
100
AcDbEntity
  8
Layer_1
 62
7
100
AcDbSpline
 70
8
 71
3
 72
8
 73
4
 74
0
 40
0
 40
0
 40
0
 40
0
 40
1
 40
1
 40
1
 40
1
 10
76.516914
 20
123.225950
 30
0.0
 10
76.625779
 20
123.298983
 30
0.0
 10
76.759449
 20
123.335500
 30
0.0
 10
76.917923
 20
123.335500
 30
0.0
  0
SPLINE
  5
2ad
100
AcDbEntity
  8
Layer_1
 62
7
100
AcDbSpline
 70
8
 71
3
 72
8
 73
4
 74
0
 40
0
 40
0
 40
0
 40
0
 40
1
 40
1
 40
1
 40
1
 10
76.917923
 20
123.335500
 30
0.0
 10
77.201798
 20
123.335500
 30
0.0
 10
77.405748
 20
123.216990
 30
0.0
 10
77.529771
 20
122.979970
 30
0.0
  0
LWPOLYLINE
  5
2ae
100
AcDbEntity
  8
Layer_1
 62
7
100
AcDbPolyline
 90
2
 70
0
 10
77.529764
 20
121.065890
 30
0.0
 10
77.529764
 20
121.316010
 30
0.0
  0
SPLINE
  5
2af
100
AcDbEntity
  8
Layer_1
 62
7
100
AcDbSpline
 70
8
 71
3
 72
8
 73
4
 74
0
 40
0
 40
0
 40
0
 40
0
 40
1
 40
1
 40
1
 40
1
 10
78.135414
 20
121.134090
 30
0.0
 10
78.135414
 20
120.763397
 30
0.0
 10
78.052043
 20
120.496057
 30
0.0
 10
77.885300
 20
120.332070
 30
0.0
  0
SPLINE
  5
2b0
100
AcDbEntity
  8
Layer_1
 62
7
100
AcDbSpline
 70
8
 71
3
 72
8
 73
4
 74
0
 40
0
 40
0
 40
0
 40
0
 40
1
 40
1
 40
1
 40
1
 10
77.885300
 20
120.332070
 30
0.0
 10
77.718557
 20
120.166703
 30
0.0
 10
77.448462
 20
120.084020
 30
0.0
 10
77.075014
 20
120.084020
 30
0.0
  0
LWPOLYLINE
  5
2b1
100
AcDbEntity
  8
Layer_1
 62
7
100
AcDbPolyline
 90
4
 70
0
 10
77.529771
 20
122.979970
 30
0.0
 10
77.589711
 20
123.275560
 30
0.0
 10
78.135414
 20
123.275560
 30
0.0
 10
78.135414
 20
121.134090
 30
0.0
  0
SPLINE
  5
2b2
100
AcDbEntity
  8
Layer_1
 62
7
100
AcDbSpline
 70
8
 71
3
 72
8
 73
4
 74
0
 40
0
 40
0
 40
0
 40
0
 40
1
 40
1
 40
1
 40
1
 10
77.101882
 20
121.468970
 30
0.0
 10
77.227283
 20
121.468970
 30
0.0
 10
77.329947
 20
121.533050
 30
0.0
 10
77.409873
 20
121.661210
 30
0.0
  0
SPLINE
  5
2b3
100
AcDbEntity
  8
Layer_1
 62
7
100
AcDbSpline
 70
8
 71
3
 72
8
 73
4
 74
0
 40
0
 40
0
 40
0
 40
0
 40
1
 40
1
 40
1
 40
1
 10
77.409873
 20
121.661210
 30
0.0
 10
77.489799
 20
121.789363
 30
0.0
 10
77.529762
 20
121.954037
 30
0.0
 10
77.529762
 20
122.155230
 30
0.0
  0
SPLINE
  5
2b4
100
AcDbEntity
  8
Layer_1
 62
7
100
AcDbSpline
 70
8
 71
3
 72
8
 73
4
 74
0
 40
0
 40
0
 40
0
 40
0
 40
1
 40
1
 40
1
 40
1
 10
77.529762
 20
122.155230
 30
0.0
 10
77.529762
 20
122.356423
 30
0.0
 10
77.489799
 20
122.520410
 30
0.0
 10
77.409873
 20
122.647190
 30
0.0
  0
SPLINE
  5
2b5
100
AcDbEntity
  8
Layer_1
 62
7
100
AcDbSpline
 70
8
 71
3
 72
8
 73
4
 74
0
 40
0
 40
0
 40
0
 40
0
 40
1
 40
1
 40
1
 40
1
 10
77.409873
 20
122.647190
 30
0.0
 10
77.331325
 20
122.775350
 30
0.0
 10
77.229350
 20
122.839430
 30
0.0
 10
77.103949
 20
122.839430
 30
0.0
  0
SPLINE
  5
2b6
100
AcDbEntity
  8
Layer_1
 62
7
100
AcDbSpline
 70
8
 71
3
 72
8
 73
4
 74
0
 40
0
 40
0
 40
0
 40
0
 40
1
 40
1
 40
1
 40
1
 10
77.103949
 20
122.839430
 30
0.0
 10
76.978548
 20
122.839430
 30
0.0
 10
76.875884
 20
122.775350
 30
0.0
 10
76.795958
 20
122.647190
 30
0.0
  0
SPLINE
  5
2b7
100
AcDbEntity
  8
Layer_1
 62
7
100
AcDbSpline
 70
8
 71
3
 72
8
 73
4
 74
0
 40
0
 40
0
 40
0
 40
0
 40
1
 40
1
 40
1
 40
1
 10
76.795958
 20
122.647190
 30
0.0
 10
76.717409
 20
122.520410
 30
0.0
 10
76.678135
 20
122.356423
 30
0.0
 10
76.678135
 20
122.155230
 30
0.0
  0
SPLINE
  5
2b8
100
AcDbEntity
  8
Layer_1
 62
7
100
AcDbSpline
 70
8
 71
3
 72
8
 73
4
 74
0
 40
0
 40
0
 40
0
 40
0
 40
1
 40
1
 40
1
 40
1
 10
76.678135
 20
122.155230
 30
0.0
 10
76.678135
 20
121.954037
 30
0.0
 10
76.717409
 20
121.789363
 30
0.0
 10
76.795958
 20
121.661210
 30
0.0
  0
SPLINE
  5
2b9
100
AcDbEntity
  8
Layer_1
 62
7
100
AcDbSpline
 70
8
 71
3
 72
8
 73
4
 74
0
 40
0
 40
0
 40
0
 40
0
 40
1
 40
1
 40
1
 40
1
 10
76.795958
 20
121.661210
 30
0.0
 10
76.874506
 20
121.533050
 30
0.0
 10
76.976481
 20
121.468970
 30
0.0
 10
77.101882
 20
121.468970
 30
0.0
  0
LWPOLYLINE
  5
2ba
100
AcDbEntity
  8
Layer_1
 62
7
100
AcDbPolyline
 90
1
 70
1
 10
77.075014
 20
120.084020
 30
0.0
  0
LWPOLYLINE
  5
2bb
100
AcDbEntity
  8
Layer_1
 62
7
100
AcDbPolyline
 90
1
 70
1
 10
77.101882
 20
121.468970
 30
0.0
  0
LWPOLYLINE
  5
2bc
100
AcDbEntity
  8
Layer_1
 62
7
100
AcDbPolyline
 90
7
 70
1
 10
81.132640
 20
123.275580
 30
0.0
 10
81.746555
 20
123.275580
 30
0.0
 10
82.240582
 20
121.468970
 30
0.0
 10
82.736675
 20
123.275580
 30
0.0
 10
83.350590
 20
123.275580
 30
0.0
 10
82.614719
 20
120.960470
 30
0.0
 10
81.868512
 20
120.960470
 30
0.0
  0
SPLINE
  5
2bd
100
AcDbEntity
  8
Layer_1
 62
7
100
AcDbSpline
 70
8
 71
3
 72
8
 73
4
 74
0
 40
0
 40
0
 40
0
 40
0
 40
1
 40
1
 40
1
 40
1
 10
87.329672
 20
120.873660
 30
0.0
 10
87.275932
 20
120.873660
 30
0.0
 10
87.228390
 20
120.883293
 30
0.0
 10
87.187045
 20
120.902560
 30
0.0
  0
SPLINE
  5
2be
100
AcDbEntity
  8
Layer_1
 62
7
100
AcDbSpline
 70
8
 71
3
 72
8
 73
4
 74
0
 40
0
 40
0
 40
0
 40
0
 40
1
 40
1
 40
1
 40
1
 10
87.187045
 20
120.902560
 30
0.0
 10
87.145705
 20
120.920493
 30
0.0
 10
87.107809
 20
120.946660
 30
0.0
 10
87.073357
 20
120.981060
 30
0.0
  0
SPLINE
  5
2bf
100
AcDbEntity
  8
Layer_1
 62
7
100
AcDbSpline
 70
8
 71
3
 72
8
 73
4
 74
0
 40
0
 40
0
 40
0
 40
0
 40
1
 40
1
 40
1
 40
1
 10
87.073357
 20
120.981060
 30
0.0
 10
87.001699
 20
121.052720
 30
0.0
 10
86.965870
 20
121.142983
 30
0.0
 10
86.965870
 20
121.251850
 30
0.0
  0
SPLINE
  5
2c0
100
AcDbEntity
  8
Layer_1
 62
7
100
AcDbSpline
 70
8
 71
3
 72
8
 73
4
 74
0
 40
0
 40
0
 40
0
 40
0
 40
1
 40
1
 40
1
 40
1
 10
86.965870
 20
121.251850
 30
0.0
 10
86.965870
 20
121.364850
 30
0.0
 10
87.001699
 20
121.457177
 30
0.0
 10
87.073357
 20
121.528830
 30
0.0
  0
SPLINE
  5
2c1
100
AcDbEntity
  8
Layer_1
 62
7
100
AcDbSpline
 70
8
 71
3
 72
8
 73
4
 74
0
 40
0
 40
0
 40
0
 40
0
 40
1
 40
1
 40
1
 40
1
 10
87.073357
 20
121.528830
 30
0.0
 10
87.143637
 20
121.599110
 30
0.0
 10
87.229764
 20
121.634250
 30
0.0
 10
87.331739
 20
121.634250
 30
0.0
  0
SPLINE
  5
2c2
100
AcDbEntity
  8
Layer_1
 62
7
100
AcDbSpline
 70
8
 71
3
 72
8
 73
4
 74
0
 40
0
 40
0
 40
0
 40
0
 40
1
 40
1
 40
1
 40
1
 10
87.331739
 20
121.634250
 30
0.0
 10
87.435092
 20
121.634250
 30
0.0
 10
87.521908
 20
121.599110
 30
0.0
 10
87.592188
 20
121.528830
 30
0.0
  0
SPLINE
  5
2c3
100
AcDbEntity
  8
Layer_1
 62
7
100
AcDbSpline
 70
8
 71
3
 72
8
 73
4
 74
0
 40
0
 40
0
 40
0
 40
0
 40
1
 40
1
 40
1
 40
1
 10
87.592188
 20
121.528830
 30
0.0
 10
87.662468
 20
121.458550
 30
0.0
 10
87.697608
 20
121.366223
 30
0.0
 10
87.697608
 20
121.251850
 30
0.0
  0
SPLINE
  5
2c4
100
AcDbEntity
  8
Layer_1
 62
7
100
AcDbSpline
 70
8
 71
3
 72
8
 73
4
 74
0
 40
0
 40
0
 40
0
 40
0
 40
1
 40
1
 40
1
 40
1
 10
87.697608
 20
121.251850
 30
0.0
 10
87.697608
 20
121.141603
 30
0.0
 10
87.662468
 20
121.051340
 30
0.0
 10
87.592188
 20
120.981060
 30
0.0
  0
SPLINE
  5
2c5
100
AcDbEntity
  8
Layer_1
 62
7
100
AcDbSpline
 70
8
 71
3
 72
8
 73
4
 74
0
 40
0
 40
0
 40
0
 40
0
 40
1
 40
1
 40
1
 40
1
 10
87.592188
 20
120.981060
 30
0.0
 10
87.520530
 20
120.909407
 30
0.0
 10
87.433025
 20
120.873580
 30
0.0
 10
87.329672
 20
120.873580
 30
0.0
  0
LWPOLYLINE
  5
2c6
100
AcDbEntity
  8
Layer_1
 62
7
100
AcDbPolyline
 90
11
 70
1
 10
83.904561
 20
121.497910
 30
0.0
 10
84.586690
 20
121.497910
 30
0.0
 10
84.586690
 20
123.418200
 30
0.0
 10
84.123669
 20
122.915910
 30
0.0
 10
83.834281
 20
123.217700
 30
0.0
 10
84.590824
 20
124.046590
 30
0.0
 10
85.179935
 20
124.046590
 30
0.0
 10
85.179935
 20
121.497910
 30
0.0
 10
85.862063
 20
121.497910
 30
0.0
 10
85.862063
 20
120.960470
 30
0.0
 10
83.904561
 20
120.960470
 30
0.0
  0
LWPOLYLINE
  5
2c7
100
AcDbEntity
  8
Layer_1
 62
7
100
AcDbPolyline
 90
1
 70
1
 10
87.329672
 20
120.873580
 30
0.0
  0
LWPOLYLINE
  5
2c8
100
AcDbEntity
  8
Layer_1
 62
7
100
AcDbPolyline
 90
11
 70
1
 10
89.001920
 20
121.497910
 30
0.0
 10
89.684048
 20
121.497910
 30
0.0
 10
89.684048
 20
123.418200
 30
0.0
 10
89.221028
 20
122.915910
 30
0.0
 10
88.931640
 20
123.217700
 30
0.0
 10
89.688182
 20
124.046590
 30
0.0
 10
90.277293
 20
124.046590
 30
0.0
 10
90.277293
 20
121.497910
 30
0.0
 10
90.959422
 20
121.497910
 30
0.0
 10
90.959422
 20
120.960470
 30
0.0
 10
89.001920
 20
120.960470
 30
0.0
  0
LWPOLYLINE
  5
2c9
100
AcDbEntity
  8
Layer_1
 62
7
100
AcDbPolyline
 90
11
 70
1
 10
71.161165
 20
116.206250
 30
0.0
 10
71.843294
 20
116.206250
 30
0.0
 10
71.843294
 20
118.126540
 30
0.0
 10
71.380273
 20
117.624250
 30
0.0
 10
71.090886
 20
117.926040
 30
0.0
 10
71.847428
 20
118.754930
 30
0.0
 10
72.436539
 20
118.754930
 30
0.0
 10
72.436539
 20
116.206250
 30
0.0
 10
73.118667
 20
116.206250
 30
0.0
 10
73.118667
 20
115.668810
 30
0.0
 10
71.161165
 20
115.668810
 30
0.0
  0
SPLINE
  5
2ca
100
AcDbEntity
  8
Layer_1
 62
7
100
AcDbSpline
 70
8
 71
3
 72
8
 73
4
 74
0
 40
0
 40
0
 40
0
 40
0
 40
1
 40
1
 40
1
 40
1
 10
77.145291
 20
115.608870
 30
0.0
 10
76.975793
 20
115.608870
 30
0.0
 10
76.829721
 20
115.629537
 30
0.0
 10
76.707076
 20
115.670870
 30
0.0
  0
SPLINE
  5
2cb
100
AcDbEntity
  8
Layer_1
 62
7
100
AcDbSpline
 70
8
 71
3
 72
8
 73
4
 74
0
 40
0
 40
0
 40
0
 40
0
 40
1
 40
1
 40
1
 40
1
 10
76.707076
 20
115.670870
 30
0.0
 10
76.584431
 20
115.713603
 30
0.0
 10
76.481767
 20
115.773547
 30
0.0
 10
76.399084
 20
115.850700
 30
0.0
  0
SPLINE
  5
2cc
100
AcDbEntity
  8
Layer_1
 62
7
100
AcDbSpline
 70
8
 71
3
 72
8
 73
4
 74
0
 40
0
 40
0
 40
0
 40
0
 40
1
 40
1
 40
1
 40
1
 10
76.399084
 20
115.850700
 30
0.0
 10
76.224073
 20
116.013313
 30
0.0
 10
76.136568
 20
116.237933
 30
0.0
 10
76.136568
 20
116.524560
 30
0.0
  0
SPLINE
  5
2cd
100
AcDbEntity
  8
Layer_1
 62
7
100
AcDbSpline
 70
8
 71
3
 72
8
 73
4
 74
0
 40
0
 40
0
 40
0
 40
0
 40
1
 40
1
 40
1
 40
1
 10
76.136568
 20
116.524560
 30
0.0
 10
76.136568
 20
116.629293
 30
0.0
 10
76.148971
 20
116.721623
 30
0.0
 10
76.173778
 20
116.801550
 30
0.0
  0
SPLINE
  5
2ce
100
AcDbEntity
  8
Layer_1
 62
7
100
AcDbSpline
 70
8
 71
3
 72
8
 73
4
 74
0
 40
0
 40
0
 40
0
 40
0
 40
1
 40
1
 40
1
 40
1
 10
76.173778
 20
116.801550
 30
0.0
 10
76.198585
 20
116.882850
 30
0.0
 10
76.235103
 20
116.957263
 30
0.0
 10
76.283332
 20
117.024790
 30
0.0
  0
SPLINE
  5
2cf
100
AcDbEntity
  8
Layer_1
 62
7
100
AcDbSpline
 70
8
 71
3
 72
8
 73
4
 74
0
 40
0
 40
0
 40
0
 40
0
 40
1
 40
1
 40
1
 40
1
 10
76.283332
 20
117.024790
 30
0.0
 10
76.379795
 20
117.158457
 30
0.0
 10
76.515531
 20
117.251473
 30
0.0
 10
76.690542
 20
117.303840
 30
0.0
  0
SPLINE
  5
2d0
100
AcDbEntity
  8
Layer_1
 62
7
100
AcDbSpline
 70
8
 71
3
 72
8
 73
4
 74
0
 40
0
 40
0
 40
0
 40
0
 40
1
 40
1
 40
1
 40
1
 10
76.690542
 20
117.303840
 30
0.0
 10
76.533446
 20
117.357573
 30
0.0
 10
76.414935
 20
117.442323
 30
0.0
 10
76.335009
 20
117.558090
 30
0.0
  0
SPLINE
  5
2d1
100
AcDbEntity
  8
Layer_1
 62
7
100
AcDbSpline
 70
8
 71
3
 72
8
 73
4
 74
0
 40
0
 40
0
 40
0
 40
0
 40
1
 40
1
 40
1
 40
1
 10
76.335009
 20
117.558090
 30
0.0
 10
76.253704
 20
117.675223
 30
0.0
 10
76.213052
 20
117.817850
 30
0.0
 10
76.213052
 20
117.985970
 30
0.0
  0
SPLINE
  5
2d2
100
AcDbEntity
  8
Layer_1
 62
7
100
AcDbSpline
 70
8
 71
3
 72
8
 73
4
 74
0
 40
0
 40
0
 40
0
 40
0
 40
1
 40
1
 40
1
 40
1
 10
76.213052
 20
117.985970
 30
0.0
 10
76.213052
 20
118.238150
 30
0.0
 10
76.296423
 20
118.438653
 30
0.0
 10
76.463166
 20
118.587480
 30
0.0
  0
SPLINE
  5
2d3
100
AcDbEntity
  8
Layer_1
 62
7
100
AcDbSpline
 70
8
 71
3
 72
8
 73
4
 74
0
 40
0
 40
0
 40
0
 40
0
 40
1
 40
1
 40
1
 40
1
 10
76.463166
 20
118.587480
 30
0.0
 10
76.629909
 20
118.736313
 30
0.0
 10
76.856596
 20
118.810730
 30
0.0
 10
77.143227
 20
118.810730
 30
0.0
  0
SPLINE
  5
2d4
100
AcDbEntity
  8
Layer_1
 62
7
100
AcDbSpline
 70
8
 71
3
 72
8
 73
4
 74
0
 40
0
 40
0
 40
0
 40
0
 40
1
 40
1
 40
1
 40
1
 10
77.143227
 20
118.810730
 30
0.0
 10
77.429859
 20
118.810730
 30
0.0
 10
77.657235
 20
118.736313
 30
0.0
 10
77.825356
 20
118.587480
 30
0.0
  0
SPLINE
  5
2d5
100
AcDbEntity
  8
Layer_1
 62
7
100
AcDbSpline
 70
8
 71
3
 72
8
 73
4
 74
0
 40
0
 40
0
 40
0
 40
0
 40
1
 40
1
 40
1
 40
1
 10
77.825356
 20
118.587480
 30
0.0
 10
77.992098
 20
118.438653
 30
0.0
 10
78.075469
 20
118.237460
 30
0.0
 10
78.075469
 20
117.983900
 30
0.0
  0
SPLINE
  5
2d6
100
AcDbEntity
  8
Layer_1
 62
7
100
AcDbSpline
 70
8
 71
3
 72
8
 73
4
 74
0
 40
0
 40
0
 40
0
 40
0
 40
1
 40
1
 40
1
 40
1
 10
78.075469
 20
117.983900
 30
0.0
 10
78.075469
 20
117.814407
 30
0.0
 10
78.035506
 20
117.673160
 30
0.0
 10
77.955580
 20
117.560160
 30
0.0
  0
SPLINE
  5
2d7
100
AcDbEntity
  8
Layer_1
 62
7
100
AcDbSpline
 70
8
 71
3
 72
8
 73
4
 74
0
 40
0
 40
0
 40
0
 40
0
 40
1
 40
1
 40
1
 40
1
 10
77.955580
 20
117.560160
 30
0.0
 10
77.875654
 20
117.444400
 30
0.0
 10
77.759210
 20
117.358960
 30
0.0
 10
77.606248
 20
117.303840
 30
0.0
  0
SPLINE
  5
2d8
100
AcDbEntity
  8
Layer_1
 62
7
100
AcDbSpline
 70
8
 71
3
 72
8
 73
4
 74
0
 40
0
 40
0
 40
0
 40
0
 40
1
 40
1
 40
1
 40
1
 10
77.606248
 20
117.303840
 30
0.0
 10
77.775747
 20
117.251440
 30
0.0
 10
77.909416
 20
117.157733
 30
0.0
 10
78.007257
 20
117.022720
 30
0.0
  0
SPLINE
  5
2d9
100
AcDbEntity
  8
Layer_1
 62
7
100
AcDbSpline
 70
8
 71
3
 72
8
 73
4
 74
0
 40
0
 40
0
 40
0
 40
0
 40
1
 40
1
 40
1
 40
1
 10
78.007257
 20
117.022720
 30
0.0
 10
78.103719
 20
116.889053
 30
0.0
 10
78.151950
 20
116.723000
 30
0.0
 10
78.151950
 20
116.524560
 30
0.0
  0
SPLINE
  5
2da
100
AcDbEntity
  8
Layer_1
 62
7
100
AcDbSpline
 70
8
 71
3
 72
8
 73
4
 74
0
 40
0
 40
0
 40
0
 40
0
 40
1
 40
1
 40
1
 40
1
 10
78.151950
 20
116.524560
 30
0.0
 10
78.151950
 20
116.237933
 30
0.0
 10
78.064445
 20
116.013313
 30
0.0
 10
77.889434
 20
115.850700
 30
0.0
  0
SPLINE
  5
2db
100
AcDbEntity
  8
Layer_1
 62
7
100
AcDbSpline
 70
8
 71
3
 72
8
 73
4
 74
0
 40
0
 40
0
 40
0
 40
0
 40
1
 40
1
 40
1
 40
1
 10
77.889434
 20
115.850700
 30
0.0
 10
77.714423
 20
115.689473
 30
0.0
 10
77.466377
 20
115.608860
 30
0.0
 10
77.145294
 20
115.608860
 30
0.0
  0
LWPOLYLINE
  5
2dc
100
AcDbEntity
  8
Layer_1
 62
7
100
AcDbPolyline
 90
4
 70
1
 10
75.179521
 20
118.754930
 30
0.0
 10
75.636341
 20
118.754930
 30
0.0
 10
74.011635
 20
115.276070
 30
0.0
 10
73.554816
 20
115.276070
 30
0.0
  0
SPLINE
  5
2dd
100
AcDbEntity
  8
Layer_1
 62
7
100
AcDbSpline
 70
8
 71
3
 72
8
 73
4
 74
0
 40
0
 40
0
 40
0
 40
0
 40
1
 40
1
 40
1
 40
1
 10
77.143191
 20
117.535360
 30
0.0
 10
77.264458
 20
117.535360
 30
0.0
 10
77.360232
 20
117.571190
 30
0.0
 10
77.430512
 20
117.642850
 30
0.0
  0
SPLINE
  5
2de
100
AcDbEntity
  8
Layer_1
 62
7
100
AcDbSpline
 70
8
 71
3
 72
8
 73
4
 74
0
 40
0
 40
0
 40
0
 40
0
 40
1
 40
1
 40
1
 40
1
 10
77.430512
 20
117.642850
 30
0.0
 10
77.499414
 20
117.715883
 30
0.0
 10
77.533865
 20
117.810967
 30
0.0
 10
77.533865
 20
117.928100
 30
0.0
  0
SPLINE
  5
2df
100
AcDbEntity
  8
Layer_1
 62
7
100
AcDbSpline
 70
8
 71
3
 72
8
 73
4
 74
0
 40
0
 40
0
 40
0
 40
0
 40
1
 40
1
 40
1
 40
1
 10
77.533865
 20
117.928100
 30
0.0
 10
77.533865
 20
118.050747
 30
0.0
 10
77.499414
 20
118.146520
 30
0.0
 10
77.430512
 20
118.215420
 30
0.0
  0
SPLINE
  5
2e0
100
AcDbEntity
  8
Layer_1
 62
7
100
AcDbSpline
 70
8
 71
3
 72
8
 73
4
 74
0
 40
0
 40
0
 40
0
 40
0
 40
1
 40
1
 40
1
 40
1
 10
77.430512
 20
118.215420
 30
0.0
 10
77.361610
 20
118.284327
 30
0.0
 10
77.265836
 20
118.318780
 30
0.0
 10
77.143191
 20
118.318780
 30
0.0
  0
SPLINE
  5
2e1
100
AcDbEntity
  8
Layer_1
 62
7
100
AcDbSpline
 70
8
 71
3
 72
8
 73
4
 74
0
 40
0
 40
0
 40
0
 40
0
 40
1
 40
1
 40
1
 40
1
 10
77.143191
 20
118.318780
 30
0.0
 10
77.024680
 20
118.318780
 30
0.0
 10
76.930285
 20
118.283640
 30
0.0
 10
76.860005
 20
118.213360
 30
0.0
  0
SPLINE
  5
2e2
100
AcDbEntity
  8
Layer_1
 62
7
100
AcDbSpline
 70
8
 71
3
 72
8
 73
4
 74
0
 40
0
 40
0
 40
0
 40
0
 40
1
 40
1
 40
1
 40
1
 10
76.860005
 20
118.213360
 30
0.0
 10
76.789725
 20
118.143080
 30
0.0
 10
76.754585
 20
118.047993
 30
0.0
 10
76.754585
 20
117.928100
 30
0.0
  0
SPLINE
  5
2e3
100
AcDbEntity
  8
Layer_1
 62
7
100
AcDbSpline
 70
8
 71
3
 72
8
 73
4
 74
0
 40
0
 40
0
 40
0
 40
0
 40
1
 40
1
 40
1
 40
1
 10
76.754585
 20
117.928100
 30
0.0
 10
76.754585
 20
117.810967
 30
0.0
 10
76.789725
 20
117.715883
 30
0.0
 10
76.860005
 20
117.642850
 30
0.0
  0
SPLINE
  5
2e4
100
AcDbEntity
  8
Layer_1
 62
7
100
AcDbSpline
 70
8
 71
3
 72
8
 73
4
 74
0
 40
0
 40
0
 40
0
 40
0
 40
1
 40
1
 40
1
 40
1
 10
76.860005
 20
117.642850
 30
0.0
 10
76.930285
 20
117.571190
 30
0.0
 10
77.024680
 20
117.535360
 30
0.0
 10
77.143191
 20
117.535360
 30
0.0
  0
LWPOLYLINE
  5
2e5
100
AcDbEntity
  8
Layer_1
 62
7
100
AcDbPolyline
 90
1
 70
1
 10
77.145294
 20
115.608860
 30
0.0
  0
SPLINE
  5
2e6
100
AcDbEntity
  8
Layer_1
 62
7
100
AcDbSpline
 70
8
 71
3
 72
8
 73
4
 74
0
 40
0
 40
0
 40
0
 40
0
 40
1
 40
1
 40
1
 40
1
 10
77.143191
 20
116.100830
 30
0.0
 10
77.282373
 20
116.100830
 30
0.0
 10
77.393305
 20
116.144237
 30
0.0
 10
77.475987
 20
116.231050
 30
0.0
  0
SPLINE
  5
2e7
100
AcDbEntity
  8
Layer_1
 62
7
100
AcDbSpline
 70
8
 71
3
 72
8
 73
4
 74
0
 40
0
 40
0
 40
0
 40
0
 40
1
 40
1
 40
1
 40
1
 10
77.475987
 20
116.231050
 30
0.0
 10
77.560048
 20
116.315110
 30
0.0
 10
77.602078
 20
116.430867
 30
0.0
 10
77.602078
 20
116.578320
 30
0.0
  0
SPLINE
  5
2e8
100
AcDbEntity
  8
Layer_1
 62
7
100
AcDbSpline
 70
8
 71
3
 72
8
 73
4
 74
0
 40
0
 40
0
 40
0
 40
0
 40
1
 40
1
 40
1
 40
1
 10
77.602078
 20
116.578320
 30
0.0
 10
77.602078
 20
116.716120
 30
0.0
 10
77.560048
 20
116.829117
 30
0.0
 10
77.475987
 20
116.917310
 30
0.0
  0
SPLINE
  5
2e9
100
AcDbEntity
  8
Layer_1
 62
7
100
AcDbSpline
 70
8
 71
3
 72
8
 73
4
 74
0
 40
0
 40
0
 40
0
 40
0
 40
1
 40
1
 40
1
 40
1
 10
77.475987
 20
116.917310
 30
0.0
 10
77.437400
 20
116.957310
 30
0.0
 10
77.390547
 20
116.988310
 30
0.0
 10
77.335428
 20
117.010310
 30
0.0
  0
SPLINE
  5
2ea
100
AcDbEntity
  8
Layer_1
 62
7
100
AcDbSpline
 70
8
 71
3
 72
8
 73
4
 74
0
 40
0
 40
0
 40
0
 40
0
 40
1
 40
1
 40
1
 40
1
 10
77.335428
 20
117.010310
 30
0.0
 10
77.280308
 20
117.033710
 30
0.0
 10
77.216229
 20
117.045410
 30
0.0
 10
77.143191
 20
117.045410
 30
0.0
  0
SPLINE
  5
2eb
100
AcDbEntity
  8
Layer_1
 62
7
100
AcDbSpline
 70
8
 71
3
 72
8
 73
4
 74
0
 40
0
 40
0
 40
0
 40
0
 40
1
 40
1
 40
1
 40
1
 10
77.143191
 20
117.045410
 30
0.0
 10
77.004010
 20
117.045410
 30
0.0
 10
76.893767
 20
117.002690
 30
0.0
 10
76.812462
 20
116.917250
 30
0.0
  0
SPLINE
  5
2ec
100
AcDbEntity
  8
Layer_1
 62
7
100
AcDbSpline
 70
8
 71
3
 72
8
 73
4
 74
0
 40
0
 40
0
 40
0
 40
0
 40
1
 40
1
 40
1
 40
1
 10
76.812462
 20
116.917250
 30
0.0
 10
76.728402
 20
116.833190
 30
0.0
 10
76.686372
 20
116.719503
 30
0.0
 10
76.686372
 20
116.576190
 30
0.0
  0
SPLINE
  5
2ed
100
AcDbEntity
  8
Layer_1
 62
7
100
AcDbSpline
 70
8
 71
3
 72
8
 73
4
 74
0
 40
0
 40
0
 40
0
 40
0
 40
1
 40
1
 40
1
 40
1
 10
76.686372
 20
116.576190
 30
0.0
 10
76.686372
 20
116.432877
 30
0.0
 10
76.728402
 20
116.317120
 30
0.0
 10
76.812462
 20
116.228920
 30
0.0
  0
SPLINE
  5
2ee
100
AcDbEntity
  8
Layer_1
 62
7
100
AcDbSpline
 70
8
 71
3
 72
8
 73
4
 74
0
 40
0
 40
0
 40
0
 40
0
 40
1
 40
1
 40
1
 40
1
 10
76.812462
 20
116.228920
 30
0.0
 10
76.849669
 20
116.190320
 30
0.0
 10
76.896522
 20
116.159320
 30
0.0
 10
76.953022
 20
116.135920
 30
0.0
  0
SPLINE
  5
2ef
100
AcDbEntity
  8
Layer_1
 62
7
100
AcDbSpline
 70
8
 71
3
 72
8
 73
4
 74
0
 40
0
 40
0
 40
0
 40
0
 40
1
 40
1
 40
1
 40
1
 10
76.953022
 20
116.135920
 30
0.0
 10
77.009522
 20
116.112520
 30
0.0
 10
77.072912
 20
116.100820
 30
0.0
 10
77.143191
 20
116.100820
 30
0.0
  0
LWPOLYLINE
  5
2f0
100
AcDbEntity
  8
Layer_1
 62
7
100
AcDbPolyline
 90
1
 70
1
 10
77.143191
 20
117.535360
 30
0.0
  0
LWPOLYLINE
  5
2f1
100
AcDbEntity
  8
Layer_1
 62
7
100
AcDbPolyline
 90
1
 70
1
 10
77.143191
 20
116.100820
 30
0.0
  0
SPLINE
  5
2f2
100
AcDbEntity
  8
Layer_1
 62
7
100
AcDbSpline
 70
8
 71
3
 72
8
 73
4
 74
0
 40
0
 40
0
 40
0
 40
0
 40
1
 40
1
 40
1
 40
1
 10
81.204956
 20
116.115300
 30
0.0
 10
81.204956
 20
116.162167
 30
0.0
 10
81.222183
 20
116.204883
 30
0.0
 10
81.256636
 20
116.243450
 30
0.0
  0
LWPOLYLINE
  5
2f3
100
AcDbEntity
  8
Layer_1
 62
7
100
AcDbPolyline
 90
4
 70
1
 10
80.276848
 20
118.754930
 30
0.0
 10
80.733700
 20
118.754930
 30
0.0
 10
79.108995
 20
115.276070
 30
0.0
 10
78.652175
 20
115.276070
 30
0.0
  0
SPLINE
  5
2f4
100
AcDbEntity
  8
Layer_1
 62
7
100
AcDbSpline
 70
8
 71
3
 72
8
 73
4
 74
0
 40
0
 40
0
 40
0
 40
0
 40
1
 40
1
 40
1
 40
1
 10
81.535689
 20
116.541110
 30
0.0
 10
81.688651
 20
116.706477
 30
0.0
 10
81.809918
 20
116.836700
 30
0.0
 10
81.899490
 20
116.931780
 30
0.0
  0
SPLINE
  5
2f5
100
AcDbEntity
  8
Layer_1
 62
7
100
AcDbSpline
 70
8
 71
3
 72
8
 73
4
 74
0
 40
0
 40
0
 40
0
 40
0
 40
1
 40
1
 40
1
 40
1
 10
81.899490
 20
116.931780
 30
0.0
 10
81.989063
 20
117.026867
 30
0.0
 10
82.059343
 20
117.102660
 30
0.0
 10
82.110330
 20
117.159160
 30
0.0
  0
SPLINE
  5
2f6
100
AcDbEntity
  8
Layer_1
 62
7
100
AcDbSpline
 70
8
 71
3
 72
8
 73
4
 74
0
 40
0
 40
0
 40
0
 40
0
 40
1
 40
1
 40
1
 40
1
 10
82.110330
 20
117.159160
 30
0.0
 10
82.161317
 20
117.215627
 30
0.0
 10
82.208170
 20
117.267303
 30
0.0
 10
82.250890
 20
117.314190
 30
0.0
  0
SPLINE
  5
2f7
100
AcDbEntity
  8
Layer_1
 62
7
100
AcDbSpline
 70
8
 71
3
 72
8
 73
4
 74
0
 40
0
 40
0
 40
0
 40
0
 40
1
 40
1
 40
1
 40
1
 10
82.250890
 20
117.314190
 30
0.0
 10
82.301877
 20
117.373457
 30
0.0
 10
82.345974
 20
117.427200
 30
0.0
 10
82.383181
 20
117.475420
 30
0.0
  0
SPLINE
  5
2f8
100
AcDbEntity
  8
Layer_1
 62
7
100
AcDbSpline
 70
8
 71
3
 72
8
 73
4
 74
0
 40
0
 40
0
 40
0
 40
0
 40
1
 40
1
 40
1
 40
1
 10
82.383181
 20
117.475420
 30
0.0
 10
82.420388
 20
117.525020
 30
0.0
 10
82.450704
 20
117.575317
 30
0.0
 10
82.474131
 20
117.626310
 30
0.0
  0
SPLINE
  5
2f9
100
AcDbEntity
  8
Layer_1
 62
7
100
AcDbSpline
 70
8
 71
3
 72
8
 73
4
 74
0
 40
0
 40
0
 40
0
 40
0
 40
1
 40
1
 40
1
 40
1
 10
82.474131
 20
117.626310
 30
0.0
 10
82.519604
 20
117.718643
 30
0.0
 10
82.542341
 20
117.811663
 30
0.0
 10
82.542341
 20
117.905370
 30
0.0
  0
SPLINE
  5
2fa
100
AcDbEntity
  8
Layer_1
 62
7
100
AcDbSpline
 70
8
 71
3
 72
8
 73
4
 74
0
 40
0
 40
0
 40
0
 40
0
 40
1
 40
1
 40
1
 40
1
 10
82.542341
 20
117.905370
 30
0.0
 10
82.542341
 20
118.037657
 30
0.0
 10
82.500311
 20
118.141697
 30
0.0
 10
82.416250
 20
118.217490
 30
0.0
  0
SPLINE
  5
2fb
100
AcDbEntity
  8
Layer_1
 62
7
100
AcDbSpline
 70
8
 71
3
 72
8
 73
4
 74
0
 40
0
 40
0
 40
0
 40
0
 40
1
 40
1
 40
1
 40
1
 10
82.416250
 20
118.217490
 30
0.0
 10
82.332190
 20
118.293283
 30
0.0
 10
82.214368
 20
118.331180
 30
0.0
 10
82.062784
 20
118.331180
 30
0.0
  0
SPLINE
  5
2fc
100
AcDbEntity
  8
Layer_1
 62
7
100
AcDbSpline
 70
8
 71
3
 72
8
 73
4
 74
0
 40
0
 40
0
 40
0
 40
0
 40
1
 40
1
 40
1
 40
1
 10
82.062784
 20
118.331180
 30
0.0
 10
81.948407
 20
118.331180
 30
0.0
 10
81.826450
 20
118.309813
 30
0.0
 10
81.696915
 20
118.267080
 30
0.0
  0
SPLINE
  5
2fd
100
AcDbEntity
  8
Layer_1
 62
7
100
AcDbSpline
 70
8
 71
3
 72
8
 73
4
 74
0
 40
0
 40
0
 40
0
 40
0
 40
1
 40
1
 40
1
 40
1
 10
81.696915
 20
118.267080
 30
0.0
 10
81.629391
 20
118.245013
 30
0.0
 10
81.559800
 20
118.218147
 30
0.0
 10
81.488142
 20
118.186480
 30
0.0
  0
SPLINE
  5
2fe
100
AcDbEntity
  8
Layer_1
 62
7
100
AcDbSpline
 70
8
 71
3
 72
8
 73
4
 74
0
 40
0
 40
0
 40
0
 40
0
 40
1
 40
1
 40
1
 40
1
 10
81.488142
 20
118.186480
 30
0.0
 10
81.417862
 20
118.156147
 30
0.0
 10
81.345515
 20
118.119627
 30
0.0
 10
81.271101
 20
118.076920
 30
0.0
  0
LWPOLYLINE
  5
2ff
100
AcDbEntity
  8
Layer_1
 62
7
100
AcDbPolyline
 90
2
 70
0
 10
81.256636
 20
116.243450
 30
0.0
 10
81.535689
 20
116.541110
 30
0.0
  0
SPLINE
  5
300
100
AcDbEntity
  8
Layer_1
 62
7
100
AcDbSpline
 70
8
 71
3
 72
8
 73
4
 74
0
 40
0
 40
0
 40
0
 40
0
 40
1
 40
1
 40
1
 40
1
 10
81.271101
 20
118.645360
 30
0.0
 10
81.353784
 20
118.675693
 30
0.0
 10
81.432332
 20
118.701193
 30
0.0
 10
81.506746
 20
118.721860
 30
0.0
  0
SPLINE
  5
301
100
AcDbEntity
  8
Layer_1
 62
7
100
AcDbSpline
 70
8
 71
3
 72
8
 73
4
 74
0
 40
0
 40
0
 40
0
 40
0
 40
1
 40
1
 40
1
 40
1
 10
81.506746
 20
118.721860
 30
0.0
 10
81.581160
 20
118.742527
 30
0.0
 10
81.647306
 20
118.758393
 30
0.0
 10
81.705183
 20
118.769460
 30
0.0
  0
SPLINE
  5
302
100
AcDbEntity
  8
Layer_1
 62
7
100
AcDbSpline
 70
8
 71
3
 72
8
 73
4
 74
0
 40
0
 40
0
 40
0
 40
0
 40
1
 40
1
 40
1
 40
1
 10
81.705183
 20
118.769460
 30
0.0
 10
81.847121
 20
118.796993
 30
0.0
 10
81.984925
 20
118.810760
 30
0.0
 10
82.118594
 20
118.810760
 30
0.0
  0
SPLINE
  5
303
100
AcDbEntity
  8
Layer_1
 62
7
100
AcDbSpline
 70
8
 71
3
 72
8
 73
4
 74
0
 40
0
 40
0
 40
0
 40
0
 40
1
 40
1
 40
1
 40
1
 10
82.118594
 20
118.810760
 30
0.0
 10
82.268800
 20
118.810760
 30
0.0
 10
82.408671
 20
118.792160
 30
0.0
 10
82.538207
 20
118.754960
 30
0.0
  0
SPLINE
  5
304
100
AcDbEntity
  8
Layer_1
 62
7
100
AcDbSpline
 70
8
 71
3
 72
8
 73
4
 74
0
 40
0
 40
0
 40
0
 40
0
 40
1
 40
1
 40
1
 40
1
 10
82.538207
 20
118.754960
 30
0.0
 10
82.669120
 20
118.719093
 30
0.0
 10
82.783497
 20
118.661903
 30
0.0
 10
82.881338
 20
118.583390
 30
0.0
  0
SPLINE
  5
305
100
AcDbEntity
  8
Layer_1
 62
7
100
AcDbSpline
 70
8
 71
3
 72
8
 73
4
 74
0
 40
0
 40
0
 40
0
 40
0
 40
1
 40
1
 40
1
 40
1
 10
82.881338
 20
118.583390
 30
0.0
 10
82.969532
 20
118.511730
 30
0.0
 10
83.037745
 20
118.424223
 30
0.0
 10
83.085976
 20
118.320870
 30
0.0
  0
SPLINE
  5
306
100
AcDbEntity
  8
Layer_1
 62
7
100
AcDbSpline
 70
8
 71
3
 72
8
 73
4
 74
0
 40
0
 40
0
 40
0
 40
0
 40
1
 40
1
 40
1
 40
1
 10
83.085976
 20
118.320870
 30
0.0
 10
83.135583
 20
118.217517
 30
0.0
 10
83.160386
 20
118.094183
 30
0.0
 10
83.160386
 20
117.950870
 30
0.0
  0
SPLINE
  5
307
100
AcDbEntity
  8
Layer_1
 62
7
100
AcDbSpline
 70
8
 71
3
 72
8
 73
4
 74
0
 40
0
 40
0
 40
0
 40
0
 40
1
 40
1
 40
1
 40
1
 10
83.160386
 20
117.950870
 30
0.0
 10
83.160386
 20
117.837870
 30
0.0
 10
83.139716
 20
117.726940
 30
0.0
 10
83.098376
 20
117.618080
 30
0.0
  0
SPLINE
  5
308
100
AcDbEntity
  8
Layer_1
 62
7
100
AcDbSpline
 70
8
 71
3
 72
8
 73
4
 74
0
 40
0
 40
0
 40
0
 40
0
 40
1
 40
1
 40
1
 40
1
 10
83.098376
 20
117.618080
 30
0.0
 10
83.047389
 20
117.495433
 30
0.0
 10
82.977798
 20
117.377610
 30
0.0
 10
82.889603
 20
117.264610
 30
0.0
  0
SPLINE
  5
309
100
AcDbEntity
  8
Layer_1
 62
7
100
AcDbSpline
 70
8
 71
3
 72
8
 73
4
 74
0
 40
0
 40
0
 40
0
 40
0
 40
1
 40
1
 40
1
 40
1
 10
82.889603
 20
117.264610
 30
0.0
 10
82.841370
 20
117.204010
 30
0.0
 10
82.771090
 20
117.125460
 30
0.0
 10
82.678763
 20
117.028960
 30
0.0
  0
SPLINE
  5
30a
100
AcDbEntity
  8
Layer_1
 62
7
100
AcDbSpline
 70
8
 71
3
 72
8
 73
4
 74
0
 40
0
 40
0
 40
0
 40
0
 40
1
 40
1
 40
1
 40
1
 10
82.678763
 20
117.028960
 30
0.0
 10
82.586435
 20
116.932500
 30
0.0
 10
82.456211
 20
116.800210
 30
0.0
 10
82.288090
 20
116.632090
 30
0.0
  0
SPLINE
  5
30b
100
AcDbEntity
  8
Layer_1
 62
7
100
AcDbSpline
 70
8
 71
3
 72
8
 73
4
 74
0
 40
0
 40
0
 40
0
 40
0
 40
1
 40
1
 40
1
 40
1
 10
82.288090
 20
116.632090
 30
0.0
 10
82.187493
 20
116.530117
 30
0.0
 10
82.108256
 20
116.455013
 30
0.0
 10
82.050378
 20
116.406780
 30
0.0
  0
SPLINE
  5
30c
100
AcDbEntity
  8
Layer_1
 62
7
100
AcDbSpline
 70
8
 71
3
 72
8
 73
4
 74
0
 40
0
 40
0
 40
0
 40
0
 40
1
 40
1
 40
1
 40
1
 10
82.050378
 20
116.406780
 30
0.0
 10
81.992498
 20
116.359913
 30
0.0
 10
81.945645
 20
116.324083
 30
0.0
 10
81.909819
 20
116.299290
 30
0.0
  0
SPLINE
  5
30d
100
AcDbEntity
  8
Layer_1
 62
7
100
AcDbSpline
 70
8
 71
3
 72
8
 73
4
 74
0
 40
0
 40
0
 40
0
 40
0
 40
1
 40
1
 40
1
 40
1
 10
81.909819
 20
116.299290
 30
0.0
 10
81.873992
 20
116.274490
 30
0.0
 10
81.838163
 20
116.243490
 30
0.0
 10
81.802332
 20
116.206290
 30
0.0
  0
LWPOLYLINE
  5
30e
100
AcDbEntity
  8
Layer_1
 62
7
100
AcDbPolyline
 90
2
 70
0
 10
81.271101
 20
118.076920
 30
0.0
 10
81.271101
 20
118.645360
 30
0.0
  0
SPLINE
  5
30f
100
AcDbEntity
  8
Layer_1
 62
7
100
AcDbSpline
 70
8
 71
3
 72
8
 73
4
 74
0
 40
0
 40
0
 40
0
 40
0
 40
1
 40
1
 40
1
 40
1
 10
84.791297
 20
115.608870
 30
0.0
 10
84.449544
 20
115.608870
 30
0.0
 10
84.193918
 20
115.742540
 30
0.0
 10
84.024419
 20
116.009880
 30
0.0
  0
SPLINE
  5
310
100
AcDbEntity
  8
Layer_1
 62
7
100
AcDbSpline
 70
8
 71
3
 72
8
 73
4
 74
0
 40
0
 40
0
 40
0
 40
0
 40
1
 40
1
 40
1
 40
1
 10
84.024419
 20
116.009880
 30
0.0
 10
83.854921
 20
116.275840
 30
0.0
 10
83.770172
 20
116.675470
 30
0.0
 10
83.770172
 20
117.208770
 30
0.0
  0
SPLINE
  5
311
100
AcDbEntity
  8
Layer_1
 62
7
100
AcDbSpline
 70
8
 71
3
 72
8
 73
4
 74
0
 40
0
 40
0
 40
0
 40
0
 40
1
 40
1
 40
1
 40
1
 10
83.770172
 20
117.208770
 30
0.0
 10
83.770172
 20
117.744823
 30
0.0
 10
83.854921
 20
118.145830
 30
0.0
 10
84.024419
 20
118.411790
 30
0.0
  0
SPLINE
  5
312
100
AcDbEntity
  8
Layer_1
 62
7
100
AcDbSpline
 70
8
 71
3
 72
8
 73
4
 74
0
 40
0
 40
0
 40
0
 40
0
 40
1
 40
1
 40
1
 40
1
 10
84.024419
 20
118.411790
 30
0.0
 10
84.193918
 20
118.677757
 30
0.0
 10
84.448855
 20
118.810740
 30
0.0
 10
84.789230
 20
118.810740
 30
0.0
  0
SPLINE
  5
313
100
AcDbEntity
  8
Layer_1
 62
7
100
AcDbSpline
 70
8
 71
3
 72
8
 73
4
 74
0
 40
0
 40
0
 40
0
 40
0
 40
1
 40
1
 40
1
 40
1
 10
84.789230
 20
118.810740
 30
0.0
 10
85.130983
 20
118.810740
 30
0.0
 10
85.386609
 20
118.677757
 30
0.0
 10
85.556108
 20
118.411790
 30
0.0
  0
SPLINE
  5
314
100
AcDbEntity
  8
Layer_1
 62
7
100
AcDbSpline
 70
8
 71
3
 72
8
 73
4
 74
0
 40
0
 40
0
 40
0
 40
0
 40
1
 40
1
 40
1
 40
1
 10
85.556108
 20
118.411790
 30
0.0
 10
85.725606
 20
118.145830
 30
0.0
 10
85.810355
 20
117.744823
 30
0.0
 10
85.810355
 20
117.208770
 30
0.0
  0
SPLINE
  5
315
100
AcDbEntity
  8
Layer_1
 62
7
100
AcDbSpline
 70
8
 71
3
 72
8
 73
4
 74
0
 40
0
 40
0
 40
0
 40
0
 40
1
 40
1
 40
1
 40
1
 10
85.810355
 20
117.208770
 30
0.0
 10
85.810355
 20
116.142170
 30
0.0
 10
85.470669
 20
115.608870
 30
0.0
 10
84.791297
 20
115.608870
 30
0.0
  0
LWPOLYLINE
  5
316
100
AcDbEntity
  8
Layer_1
 62
7
100
AcDbPolyline
 90
5
 70
0
 10
81.802332
 20
116.206290
 30
0.0
 10
83.164521
 20
116.206290
 30
0.0
 10
83.164521
 20
115.668850
 30
0.0
 10
81.204953
 20
115.668850
 30
0.0
 10
81.204956
 20
116.115300
 30
0.0
  0
SPLINE
  5
317
100
AcDbEntity
  8
Layer_1
 62
7
100
AcDbSpline
 70
8
 71
3
 72
8
 73
4
 74
0
 40
0
 40
0
 40
0
 40
0
 40
1
 40
1
 40
1
 40
1
 10
84.789197
 20
116.125630
 30
0.0
 10
84.931135
 20
116.125630
 30
0.0
 10
85.034488
 20
116.211757
 30
0.0
 10
85.099255
 20
116.384010
 30
0.0
  0
SPLINE
  5
318
100
AcDbEntity
  8
Layer_1
 62
7
100
AcDbSpline
 70
8
 71
3
 72
8
 73
4
 74
0
 40
0
 40
0
 40
0
 40
0
 40
1
 40
1
 40
1
 40
1
 10
85.099255
 20
116.384010
 30
0.0
 10
85.164022
 20
116.559023
 30
0.0
 10
85.196405
 20
116.833943
 30
0.0
 10
85.196405
 20
117.208770
 30
0.0
  0
SPLINE
  5
319
100
AcDbEntity
  8
Layer_1
 62
7
100
AcDbSpline
 70
8
 71
3
 72
8
 73
4
 74
0
 40
0
 40
0
 40
0
 40
0
 40
1
 40
1
 40
1
 40
1
 10
85.196405
 20
117.208770
 30
0.0
 10
85.196405
 20
117.584970
 30
0.0
 10
85.164022
 20
117.860577
 30
0.0
 10
85.099255
 20
118.035590
 30
0.0
  0
SPLINE
  5
31a
100
AcDbEntity
  8
Layer_1
 62
7
100
AcDbSpline
 70
8
 71
3
 72
8
 73
4
 74
0
 40
0
 40
0
 40
0
 40
0
 40
1
 40
1
 40
1
 40
1
 10
85.099255
 20
118.035590
 30
0.0
 10
85.034488
 20
118.207843
 30
0.0
 10
84.931136
 20
118.293970
 30
0.0
 10
84.789197
 20
118.293970
 30
0.0
  0
SPLINE
  5
31b
100
AcDbEntity
  8
Layer_1
 62
7
100
AcDbSpline
 70
8
 71
3
 72
8
 73
4
 74
0
 40
0
 40
0
 40
0
 40
0
 40
1
 40
1
 40
1
 40
1
 10
84.789197
 20
118.293970
 30
0.0
 10
84.648637
 20
118.293970
 30
0.0
 10
84.545973
 20
118.207843
 30
0.0
 10
84.481206
 20
118.035590
 30
0.0
  0
SPLINE
  5
31c
100
AcDbEntity
  8
Layer_1
 62
7
100
AcDbSpline
 70
8
 71
3
 72
8
 73
4
 74
0
 40
0
 40
0
 40
0
 40
0
 40
1
 40
1
 40
1
 40
1
 10
84.481206
 20
118.035590
 30
0.0
 10
84.416439
 20
117.860577
 30
0.0
 10
84.384056
 20
117.584970
 30
0.0
 10
84.384056
 20
117.208770
 30
0.0
  0
SPLINE
  5
31d
100
AcDbEntity
  8
Layer_1
 62
7
100
AcDbSpline
 70
8
 71
3
 72
8
 73
4
 74
0
 40
0
 40
0
 40
0
 40
0
 40
1
 40
1
 40
1
 40
1
 10
84.384056
 20
117.208770
 30
0.0
 10
84.384056
 20
116.833943
 30
0.0
 10
84.416439
 20
116.559023
 30
0.0
 10
84.481206
 20
116.384010
 30
0.0
  0
SPLINE
  5
31e
100
AcDbEntity
  8
Layer_1
 62
7
100
AcDbSpline
 70
8
 71
3
 72
8
 73
4
 74
0
 40
0
 40
0
 40
0
 40
0
 40
1
 40
1
 40
1
 40
1
 10
84.481206
 20
116.384010
 30
0.0
 10
84.545973
 20
116.211757
 30
0.0
 10
84.648636
 20
116.125630
 30
0.0
 10
84.789197
 20
116.125630
 30
0.0
  0
LWPOLYLINE
  5
31f
100
AcDbEntity
  8
Layer_1
 62
7
100
AcDbPolyline
 90
1
 70
1
 10
84.791297
 20
115.608870
 30
0.0
  0
SPLINE
  5
320
100
AcDbEntity
  8
Layer_1
 62
7
100
AcDbSpline
 70
8
 71
3
 72
8
 73
4
 74
0
 40
0
 40
0
 40
0
 40
0
 40
1
 40
1
 40
1
 40
1
 10
84.791297
 20
116.619660
 30
0.0
 10
84.767870
 20
116.619660
 30
0.0
 10
84.749957
 20
116.644460
 30
0.0
 10
84.737557
 20
116.694060
 30
0.0
  0
SPLINE
  5
321
100
AcDbEntity
  8
Layer_1
 62
7
100
AcDbSpline
 70
8
 71
3
 72
8
 73
4
 74
0
 40
0
 40
0
 40
0
 40
0
 40
1
 40
1
 40
1
 40
1
 10
84.737557
 20
116.694060
 30
0.0
 10
84.725157
 20
116.745060
 30
0.0
 10
84.714820
 20
116.801560
 30
0.0
 10
84.706547
 20
116.863560
 30
0.0
  0
SPLINE
  5
322
100
AcDbEntity
  8
Layer_1
 62
7
100
AcDbSpline
 70
8
 71
3
 72
8
 73
4
 74
0
 40
0
 40
0
 40
0
 40
0
 40
1
 40
1
 40
1
 40
1
 10
84.706547
 20
116.863560
 30
0.0
 10
84.701014
 20
116.915893
 30
0.0
 10
84.695500
 20
116.977903
 30
0.0
 10
84.690007
 20
117.049590
 30
0.0
  0
SPLINE
  5
323
100
AcDbEntity
  8
Layer_1
 62
7
100
AcDbSpline
 70
8
 71
3
 72
8
 73
4
 74
0
 40
0
 40
0
 40
0
 40
0
 40
1
 40
1
 40
1
 40
1
 10
84.690007
 20
117.049590
 30
0.0
 10
84.684474
 20
117.122630
 30
0.0
 10
84.681707
 20
117.178443
 30
0.0
 10
84.681707
 20
117.217030
 30
0.0
  0
SPLINE
  5
324
100
AcDbEntity
  8
Layer_1
 62
7
100
AcDbSpline
 70
8
 71
3
 72
8
 73
4
 74
0
 40
0
 40
0
 40
0
 40
0
 40
1
 40
1
 40
1
 40
1
 10
84.681707
 20
117.217030
 30
0.0
 10
84.681707
 20
117.243230
 30
0.0
 10
84.683074
 20
117.290770
 30
0.0
 10
84.685807
 20
117.359650
 30
0.0
  0
SPLINE
  5
325
100
AcDbEntity
  8
Layer_1
 62
7
100
AcDbSpline
 70
8
 71
3
 72
8
 73
4
 74
0
 40
0
 40
0
 40
0
 40
0
 40
1
 40
1
 40
1
 40
1
 10
84.685807
 20
117.359650
 30
0.0
 10
84.688540
 20
117.429930
 30
0.0
 10
84.694054
 20
117.496767
 30
0.0
 10
84.702347
 20
117.560160
 30
0.0
  0
SPLINE
  5
326
100
AcDbEntity
  8
Layer_1
 62
7
100
AcDbSpline
 70
8
 71
3
 72
8
 73
4
 74
0
 40
0
 40
0
 40
0
 40
0
 40
1
 40
1
 40
1
 40
1
 10
84.702347
 20
117.560160
 30
0.0
 10
84.721640
 20
117.721387
 30
0.0
 10
84.749890
 20
117.802000
 30
0.0
 10
84.787097
 20
117.802000
 30
0.0
  0
SPLINE
  5
327
100
AcDbEntity
  8
Layer_1
 62
7
100
AcDbSpline
 70
8
 71
3
 72
8
 73
4
 74
0
 40
0
 40
0
 40
0
 40
0
 40
1
 40
1
 40
1
 40
1
 10
84.787097
 20
117.802000
 30
0.0
 10
84.807770
 20
117.802000
 30
0.0
 10
84.825684
 20
117.778567
 30
0.0
 10
84.840837
 20
117.731700
 30
0.0
  0
SPLINE
  5
328
100
AcDbEntity
  8
Layer_1
 62
7
100
AcDbSpline
 70
8
 71
3
 72
8
 73
4
 74
0
 40
0
 40
0
 40
0
 40
0
 40
1
 40
1
 40
1
 40
1
 10
84.840837
 20
117.731700
 30
0.0
 10
84.855997
 20
117.686233
 30
0.0
 10
84.867710
 20
117.627667
 30
0.0
 10
84.875977
 20
117.556000
 30
0.0
  0
SPLINE
  5
329
100
AcDbEntity
  8
Layer_1
 62
7
100
AcDbSpline
 70
8
 71
3
 72
8
 73
4
 74
0
 40
0
 40
0
 40
0
 40
0
 40
1
 40
1
 40
1
 40
1
 10
84.875977
 20
117.556000
 30
0.0
 10
84.881510
 20
117.498133
 30
0.0
 10
84.886334
 20
117.434057
 30
0.0
 10
84.890447
 20
117.363770
 30
0.0
  0
SPLINE
  5
32a
100
AcDbEntity
  8
Layer_1
 62
7
100
AcDbSpline
 70
8
 71
3
 72
8
 73
4
 74
0
 40
0
 40
0
 40
0
 40
0
 40
1
 40
1
 40
1
 40
1
 10
84.890447
 20
117.363770
 30
0.0
 10
84.895980
 20
117.294863
 30
0.0
 10
84.898747
 20
117.241807
 30
0.0
 10
84.898747
 20
117.204600
 30
0.0
  0
SPLINE
  5
32b
100
AcDbEntity
  8
Layer_1
 62
7
100
AcDbSpline
 70
8
 71
3
 72
8
 73
4
 74
0
 40
0
 40
0
 40
0
 40
0
 40
1
 40
1
 40
1
 40
1
 10
84.898747
 20
117.204600
 30
0.0
 10
84.898747
 20
117.181200
 30
0.0
 10
84.897380
 20
117.135727
 30
0.0
 10
84.894647
 20
117.068180
 30
0.0
  0
SPLINE
  5
32c
100
AcDbEntity
  8
Layer_1
 62
7
100
AcDbSpline
 70
8
 71
3
 72
8
 73
4
 74
0
 40
0
 40
0
 40
0
 40
0
 40
1
 40
1
 40
1
 40
1
 10
84.894647
 20
117.068180
 30
0.0
 10
84.893247
 20
117.000653
 30
0.0
 10
84.888424
 20
116.933130
 30
0.0
 10
84.880177
 20
116.865610
 30
0.0
  0
SPLINE
  5
32d
100
AcDbEntity
  8
Layer_1
 62
7
100
AcDbSpline
 70
8
 71
3
 72
8
 73
4
 74
0
 40
0
 40
0
 40
0
 40
0
 40
1
 40
1
 40
1
 40
1
 10
84.880177
 20
116.865610
 30
0.0
 10
84.862264
 20
116.701623
 30
0.0
 10
84.832637
 20
116.619630
 30
0.0
 10
84.791297
 20
116.619630
 30
0.0
  0
LWPOLYLINE
  5
32e
100
AcDbEntity
  8
Layer_1
 62
7
100
AcDbPolyline
 90
1
 70
1
 10
84.789197
 20
116.125630
 30
0.0
  0
SPLINE
  5
32f
100
AcDbEntity
  8
Layer_1
 62
7
100
AcDbSpline
 70
8
 71
3
 72
8
 73
4
 74
0
 40
0
 40
0
 40
0
 40
0
 40
1
 40
1
 40
1
 40
1
 10
86.302315
 20
116.115300
 30
0.0
 10
86.302315
 20
116.162167
 30
0.0
 10
86.319542
 20
116.204883
 30
0.0
 10
86.353995
 20
116.243450
 30
0.0
  0
LWPOLYLINE
  5
330
100
AcDbEntity
  8
Layer_1
 62
7
100
AcDbPolyline
 90
1
 70
1
 10
84.791297
 20
116.619630
 30
0.0
  0
SPLINE
  5
331
100
AcDbEntity
  8
Layer_1
 62
7
100
AcDbSpline
 70
8
 71
3
 72
8
 73
4
 74
0
 40
0
 40
0
 40
0
 40
0
 40
1
 40
1
 40
1
 40
1
 10
86.633047
 20
116.541110
 30
0.0
 10
86.786009
 20
116.706477
 30
0.0
 10
86.907276
 20
116.836700
 30
0.0
 10
86.996849
 20
116.931780
 30
0.0
  0
SPLINE
  5
332
100
AcDbEntity
  8
Layer_1
 62
7
100
AcDbSpline
 70
8
 71
3
 72
8
 73
4
 74
0
 40
0
 40
0
 40
0
 40
0
 40
1
 40
1
 40
1
 40
1
 10
86.996849
 20
116.931780
 30
0.0
 10
87.086422
 20
117.026867
 30
0.0
 10
87.156702
 20
117.102660
 30
0.0
 10
87.207689
 20
117.159160
 30
0.0
  0
SPLINE
  5
333
100
AcDbEntity
  8
Layer_1
 62
7
100
AcDbSpline
 70
8
 71
3
 72
8
 73
4
 74
0
 40
0
 40
0
 40
0
 40
0
 40
1
 40
1
 40
1
 40
1
 10
87.207689
 20
117.159160
 30
0.0
 10
87.258676
 20
117.215627
 30
0.0
 10
87.305529
 20
117.267303
 30
0.0
 10
87.348248
 20
117.314190
 30
0.0
  0
SPLINE
  5
334
100
AcDbEntity
  8
Layer_1
 62
7
100
AcDbSpline
 70
8
 71
3
 72
8
 73
4
 74
0
 40
0
 40
0
 40
0
 40
0
 40
1
 40
1
 40
1
 40
1
 10
87.348248
 20
117.314190
 30
0.0
 10
87.399235
 20
117.373457
 30
0.0
 10
87.443332
 20
117.427200
 30
0.0
 10
87.480540
 20
117.475420
 30
0.0
  0
SPLINE
  5
335
100
AcDbEntity
  8
Layer_1
 62
7
100
AcDbSpline
 70
8
 71
3
 72
8
 73
4
 74
0
 40
0
 40
0
 40
0
 40
0
 40
1
 40
1
 40
1
 40
1
 10
87.480540
 20
117.475420
 30
0.0
 10
87.517747
 20
117.525020
 30
0.0
 10
87.548063
 20
117.575317
 30
0.0
 10
87.571490
 20
117.626310
 30
0.0
  0
SPLINE
  5
336
100
AcDbEntity
  8
Layer_1
 62
7
100
AcDbSpline
 70
8
 71
3
 72
8
 73
4
 74
0
 40
0
 40
0
 40
0
 40
0
 40
1
 40
1
 40
1
 40
1
 10
87.571490
 20
117.626310
 30
0.0
 10
87.616963
 20
117.718643
 30
0.0
 10
87.639700
 20
117.811663
 30
0.0
 10
87.639700
 20
117.905370
 30
0.0
  0
SPLINE
  5
337
100
AcDbEntity
  8
Layer_1
 62
7
100
AcDbSpline
 70
8
 71
3
 72
8
 73
4
 74
0
 40
0
 40
0
 40
0
 40
0
 40
1
 40
1
 40
1
 40
1
 10
87.639700
 20
117.905370
 30
0.0
 10
87.639700
 20
118.037657
 30
0.0
 10
87.597670
 20
118.141697
 30
0.0
 10
87.513610
 20
118.217490
 30
0.0
  0
SPLINE
  5
338
100
AcDbEntity
  8
Layer_1
 62
7
100
AcDbSpline
 70
8
 71
3
 72
8
 73
4
 74
0
 40
0
 40
0
 40
0
 40
0
 40
1
 40
1
 40
1
 40
1
 10
87.513610
 20
118.217490
 30
0.0
 10
87.429550
 20
118.293283
 30
0.0
 10
87.311728
 20
118.331180
 30
0.0
 10
87.160143
 20
118.331180
 30
0.0
  0
SPLINE
  5
339
100
AcDbEntity
  8
Layer_1
 62
7
100
AcDbSpline
 70
8
 71
3
 72
8
 73
4
 74
0
 40
0
 40
0
 40
0
 40
0
 40
1
 40
1
 40
1
 40
1
 10
87.160143
 20
118.331180
 30
0.0
 10
87.045766
 20
118.331180
 30
0.0
 10
86.923810
 20
118.309813
 30
0.0
 10
86.794275
 20
118.267080
 30
0.0
  0
SPLINE
  5
33a
100
AcDbEntity
  8
Layer_1
 62
7
100
AcDbSpline
 70
8
 71
3
 72
8
 73
4
 74
0
 40
0
 40
0
 40
0
 40
0
 40
1
 40
1
 40
1
 40
1
 10
86.794275
 20
118.267080
 30
0.0
 10
86.726751
 20
118.245013
 30
0.0
 10
86.657160
 20
118.218147
 30
0.0
 10
86.585502
 20
118.186480
 30
0.0
  0
SPLINE
  5
33b
100
AcDbEntity
  8
Layer_1
 62
7
100
AcDbSpline
 70
8
 71
3
 72
8
 73
4
 74
0
 40
0
 40
0
 40
0
 40
0
 40
1
 40
1
 40
1
 40
1
 10
86.585502
 20
118.186480
 30
0.0
 10
86.515222
 20
118.156147
 30
0.0
 10
86.442875
 20
118.119627
 30
0.0
 10
86.368461
 20
118.076920
 30
0.0
  0
LWPOLYLINE
  5
33c
100
AcDbEntity
  8
Layer_1
 62
7
100
AcDbPolyline
 90
2
 70
0
 10
86.353995
 20
116.243450
 30
0.0
 10
86.633047
 20
116.541110
 30
0.0
  0
SPLINE
  5
33d
100
AcDbEntity
  8
Layer_1
 62
7
100
AcDbSpline
 70
8
 71
3
 72
8
 73
4
 74
0
 40
0
 40
0
 40
0
 40
0
 40
1
 40
1
 40
1
 40
1
 10
86.368461
 20
118.645360
 30
0.0
 10
86.451143
 20
118.675693
 30
0.0
 10
86.529691
 20
118.701193
 30
0.0
 10
86.604105
 20
118.721860
 30
0.0
  0
SPLINE
  5
33e
100
AcDbEntity
  8
Layer_1
 62
7
100
AcDbSpline
 70
8
 71
3
 72
8
 73
4
 74
0
 40
0
 40
0
 40
0
 40
0
 40
1
 40
1
 40
1
 40
1
 10
86.604105
 20
118.721860
 30
0.0
 10
86.678519
 20
118.742527
 30
0.0
 10
86.744665
 20
118.758393
 30
0.0
 10
86.802543
 20
118.769460
 30
0.0
  0
SPLINE
  5
33f
100
AcDbEntity
  8
Layer_1
 62
7
100
AcDbSpline
 70
8
 71
3
 72
8
 73
4
 74
0
 40
0
 40
0
 40
0
 40
0
 40
1
 40
1
 40
1
 40
1
 10
86.802543
 20
118.769460
 30
0.0
 10
86.944481
 20
118.796993
 30
0.0
 10
87.082285
 20
118.810760
 30
0.0
 10
87.215954
 20
118.810760
 30
0.0
  0
SPLINE
  5
340
100
AcDbEntity
  8
Layer_1
 62
7
100
AcDbSpline
 70
8
 71
3
 72
8
 73
4
 74
0
 40
0
 40
0
 40
0
 40
0
 40
1
 40
1
 40
1
 40
1
 10
87.215954
 20
118.810760
 30
0.0
 10
87.366160
 20
118.810760
 30
0.0
 10
87.506031
 20
118.792160
 30
0.0
 10
87.635566
 20
118.754960
 30
0.0
  0
SPLINE
  5
341
100
AcDbEntity
  8
Layer_1
 62
7
100
AcDbSpline
 70
8
 71
3
 72
8
 73
4
 74
0
 40
0
 40
0
 40
0
 40
0
 40
1
 40
1
 40
1
 40
1
 10
87.635566
 20
118.754960
 30
0.0
 10
87.766479
 20
118.719093
 30
0.0
 10
87.880856
 20
118.661903
 30
0.0
 10
87.978697
 20
118.583390
 30
0.0
  0
SPLINE
  5
342
100
AcDbEntity
  8
Layer_1
 62
7
100
AcDbSpline
 70
8
 71
3
 72
8
 73
4
 74
0
 40
0
 40
0
 40
0
 40
0
 40
1
 40
1
 40
1
 40
1
 10
87.978697
 20
118.583390
 30
0.0
 10
88.066892
 20
118.511730
 30
0.0
 10
88.135105
 20
118.424223
 30
0.0
 10
88.183336
 20
118.320870
 30
0.0
  0
SPLINE
  5
343
100
AcDbEntity
  8
Layer_1
 62
7
100
AcDbSpline
 70
8
 71
3
 72
8
 73
4
 74
0
 40
0
 40
0
 40
0
 40
0
 40
1
 40
1
 40
1
 40
1
 10
88.183336
 20
118.320870
 30
0.0
 10
88.232943
 20
118.217517
 30
0.0
 10
88.257746
 20
118.094183
 30
0.0
 10
88.257746
 20
117.950870
 30
0.0
  0
SPLINE
  5
344
100
AcDbEntity
  8
Layer_1
 62
7
100
AcDbSpline
 70
8
 71
3
 72
8
 73
4
 74
0
 40
0
 40
0
 40
0
 40
0
 40
1
 40
1
 40
1
 40
1
 10
88.257746
 20
117.950870
 30
0.0
 10
88.257746
 20
117.837870
 30
0.0
 10
88.237076
 20
117.726940
 30
0.0
 10
88.195736
 20
117.618080
 30
0.0
  0
SPLINE
  5
345
100
AcDbEntity
  8
Layer_1
 62
7
100
AcDbSpline
 70
8
 71
3
 72
8
 73
4
 74
0
 40
0
 40
0
 40
0
 40
0
 40
1
 40
1
 40
1
 40
1
 10
88.195736
 20
117.618080
 30
0.0
 10
88.144749
 20
117.495433
 30
0.0
 10
88.075159
 20
117.377610
 30
0.0
 10
87.986964
 20
117.264610
 30
0.0
  0
SPLINE
  5
346
100
AcDbEntity
  8
Layer_1
 62
7
100
AcDbSpline
 70
8
 71
3
 72
8
 73
4
 74
0
 40
0
 40
0
 40
0
 40
0
 40
1
 40
1
 40
1
 40
1
 10
87.986964
 20
117.264610
 30
0.0
 10
87.938731
 20
117.204010
 30
0.0
 10
87.868451
 20
117.125460
 30
0.0
 10
87.776124
 20
117.028960
 30
0.0
  0
SPLINE
  5
347
100
AcDbEntity
  8
Layer_1
 62
7
100
AcDbSpline
 70
8
 71
3
 72
8
 73
4
 74
0
 40
0
 40
0
 40
0
 40
0
 40
1
 40
1
 40
1
 40
1
 10
87.776124
 20
117.028960
 30
0.0
 10
87.683795
 20
116.932500
 30
0.0
 10
87.553571
 20
116.800210
 30
0.0
 10
87.385450
 20
116.632090
 30
0.0
  0
SPLINE
  5
348
100
AcDbEntity
  8
Layer_1
 62
7
100
AcDbSpline
 70
8
 71
3
 72
8
 73
4
 74
0
 40
0
 40
0
 40
0
 40
0
 40
1
 40
1
 40
1
 40
1
 10
87.385450
 20
116.632090
 30
0.0
 10
87.284853
 20
116.530117
 30
0.0
 10
87.205616
 20
116.455013
 30
0.0
 10
87.147739
 20
116.406780
 30
0.0
  0
SPLINE
  5
349
100
AcDbEntity
  8
Layer_1
 62
7
100
AcDbSpline
 70
8
 71
3
 72
8
 73
4
 74
0
 40
0
 40
0
 40
0
 40
0
 40
1
 40
1
 40
1
 40
1
 10
87.147739
 20
116.406780
 30
0.0
 10
87.089859
 20
116.359913
 30
0.0
 10
87.043006
 20
116.324083
 30
0.0
 10
87.007179
 20
116.299290
 30
0.0
  0
SPLINE
  5
34a
100
AcDbEntity
  8
Layer_1
 62
7
100
AcDbSpline
 70
8
 71
3
 72
8
 73
4
 74
0
 40
0
 40
0
 40
0
 40
0
 40
1
 40
1
 40
1
 40
1
 10
87.007179
 20
116.299290
 30
0.0
 10
86.971352
 20
116.274490
 30
0.0
 10
86.935523
 20
116.243490
 30
0.0
 10
86.899692
 20
116.206290
 30
0.0
  0
LWPOLYLINE
  5
34b
100
AcDbEntity
  8
Layer_1
 62
7
100
AcDbPolyline
 90
2
 70
0
 10
86.368461
 20
118.076920
 30
0.0
 10
86.368461
 20
118.645360
 30
0.0
  0
LWPOLYLINE
  5
34c
100
AcDbEntity
  8
Layer_1
 62
7
100
AcDbPolyline
 90
5
 70
0
 10
86.899692
 20
116.206290
 30
0.0
 10
88.261882
 20
116.206290
 30
0.0
 10
88.261882
 20
115.668850
 30
0.0
 10
86.302313
 20
115.668850
 30
0.0
 10
86.302315
 20
116.115300
 30
0.0
  0
LWPOLYLINE
  5
34d
100
AcDbEntity
  8
Layer_1
 62
7
100
AcDbPolyline
 90
11
 70
1
 10
90.047820
 20
116.334400
 30
0.0
 10
88.824123
 20
116.334400
 30
0.0
 10
88.824123
 20
116.925580
 30
0.0
 10
89.994076
 20
118.754930
 30
0.0
 10
90.632797
 20
118.754930
 30
0.0
 10
90.632797
 20
116.857370
 30
0.0
 10
90.971794
 20
116.857370
 30
0.0
 10
90.971794
 20
116.334400
 30
0.0
 10
90.632830
 20
116.334400
 30
0.0
 10
90.632830
 20
115.668810
 30
0.0
 10
90.047853
 20
115.668810
 30
0.0
  0
LWPOLYLINE
  5
34e
100
AcDbEntity
  8
Layer_1
 62
7
100
AcDbPolyline
 90
3
 70
1
 10
90.047820
 20
116.857370
 30
0.0
 10
90.047820
 20
118.076930
 30
0.0
 10
89.268540
 20
116.857370
 30
0.0
  0
ENDSEC
  0
SECTION
  2
OBJECTS
  0
DICTIONARY
  5
C
330
0
100
AcDbDictionary
  3
ACAD_GROUP
350
D
  3
ACAD_MLINESTYLE
350
17
  0
DICTIONARY
  5
D
330
C
100
AcDbDictionary
  0
DICTIONARY
  5
1A
330
C
100
AcDbDictionary
  0
DICTIONARY
  5
17
330
C
100
AcDbDictionary
  3
STANDARD
350
18
  0
DICTIONARY
  5
19
330
C
100
AcDbDictionary
  0
ENDSEC
  0
EOF
