  0
SECTION
  2
HEADER
  9
$ACADVER
  1
AC1014
  9
$HANDSEED
  5
FFFF
  9
$INSUNITS
 70
     4
  9
$MEASUREMENT
 70
     1
  0
ENDSEC
  0
SECTION
  2
TABLES
  0
TABLE
  2
VPORT
  5
8
330
0
100
AcDbSymbolTable
 70
     4
  0
VPORT
  5
2E
330
8
100
AcDbSymbolTableRecord
100
AcDbViewportTableRecord
  2
*ACTIVE
 70
     0
 10
0.0
 20
0.0
 11
1.0
 21
1.0
 12
210.0
 22
148.5
 13
0.0
 23
0.0
 14
10.0
 24
10.0
 15
10.0
 25
10.0
 16
0.0
 26
0.0
 36
1.0
 17
0.0
 27
0.0
 37
0.0
 40
341.0
 41
1.24
 42
50.0
 43
0.0
 44
0.0
 50
0.0
 51
0.0
 71
     0
 72
   100
 73
     1
 74
     3
 75
     0
 76
     0
 77
     0
 78
     0
  0
ENDTAB
  0
TABLE
  2
LTYPE
  5
5
330
0
100
AcDbSymbolTable
 70
     1
  0
LTYPE
  5
14
330
5
100
AcDbSymbolTableRecord
100
AcDbLinetypeTableRecord
  2
BYBLOCK
 70
     0
  3

 72
    65
 73
     0
 40
0.0
  0
LTYPE
  5
15
330
5
100
AcDbSymbolTableRecord
100
AcDbLinetypeTableRecord
  2
BYLAYER
 70
     0
  3

 72
    65
 73
     0
 40
0.0
  0
LTYPE
  5
16
330
5
100
AcDbSymbolTableRecord
100
AcDbLinetypeTableRecord
  2
CONTINUOUS
 70
     0
  3
Solid line
 72
    65
 73
     0
 40
0.0
  0
ENDTAB
  0
TABLE
  2
LAYER
  5
2
100
AcDbSymbolTable
 70
1
  0
LAYER
  5
50
100
AcDbSymbolTableRecord
100
AcDbLayerTableRecord
  2
0
 70
0
  6
CONTINUOUS
  0
ENDTAB
  0
TABLE
  2
STYLE
  5
3
330
0
100
AcDbSymbolTable
 70
     1
  0
STYLE
  5
11
330
3
100
AcDbSymbolTableRecord
100
AcDbTextStyleTableRecord
  2
STANDARD
 70
     0
 40
0.0
 41
1.0
 50
0.0
 71
     0
 42
2.5
  3
txt
  4

  0
ENDTAB
  0
TABLE
  2
VIEW
  5
6
330
0
100
AcDbSymbolTable
 70
     0
  0
ENDTAB
  0
TABLE
  2
UCS
  5
7
330
0
100
AcDbSymbolTable
 70
     0
  0
ENDTAB
  0
TABLE
  2
APPID
  5
9
330
0
100
AcDbSymbolTable
 70
     2
  0
APPID
  5
12
330
9
100
AcDbSymbolTableRecord
100
AcDbRegAppTableRecord
  2
ACAD
 70
     0
  0
ENDTAB
  0
TABLE
  2
DIMSTYLE
  5
A
330
0
100
AcDbSymbolTable
 70
     1
  0
DIMSTYLE
105
27
330
A
100
AcDbSymbolTableRecord
100
AcDbDimStyleTableRecord
  2
ISO-25
 70
     0
  3

  4

  5

  6

  7

 40
1.0
 41
2.5
 42
0.625
 43
3.75
 44
1.25
 45
0.0
 46
0.0
 47
0.0
 48
0.0
140
2.5
141
2.5
142
0.0
143
0.03937007874016
144
1.0
145
0.0
146
1.0
147
0.625
 71
     0
 72
     0
 73
     0
 74
     0
 75
     0
 76
     0
 77
     1
 78
     8
170
     0
171
     3
172
     1
173
     0
174
     0
175
     0
176
     0
177
     0
178
     0
270
     2
271
     2
272
     2
273
     2
274
     3
340
11
275
     0
280
     0
281
     0
282
     0
283
     0
284
     8
285
     0
286
     0
287
     3
288
     0
  0
ENDTAB
  0
TABLE
  2
BLOCK_RECORD
  5
1
330
0
100
AcDbSymbolTable
 70
     1
  0
BLOCK_RECORD
  5
1F
330
1
100
AcDbSymbolTableRecord
100
AcDbBlockTableRecord
  2
*MODEL_SPACE
  0
BLOCK_RECORD
  5
1B
330
1
100
AcDbSymbolTableRecord
100
AcDbBlockTableRecord
  2
*PAPER_SPACE
  0
ENDTAB
  0
ENDSEC
  0
SECTION
  2
BLOCKS
  0
BLOCK
  5
20
330
1F
100
AcDbEntity
  8
0
100
AcDbBlockBegin
  2
*MODEL_SPACE
 70
     0
 10
0.0
 20
0.0
 30
0.0
  3
*MODEL_SPACE
  1

  0
ENDBLK
  5
21
330
1F
100
AcDbEntity
  8
0
100
AcDbBlockEnd
  0
BLOCK
  5
1C
330
1B
100
AcDbEntity
 67
     1
  8
0
100
AcDbBlockBegin
  2
*PAPER_SPACE
  1

  0
ENDBLK
  5
1D
330
1B
100
AcDbEntity
 67
     1
  8
0
100
AcDbBlockEnd
  0
ENDSEC
  0
SECTION
  2
ENTITIES
  0
SPLINE
  5
100
100
AcDbEntity
  8
0
 62
7
100
AcDbSpline
 70
8
 71
3
 72
8
 73
4
 74
0
 40
0
 40
0
 40
0
 40
0
 40
1
 40
1
 40
1
 40
1
 10
49.769133
 20
204.677325
 30
0.0
 10
50.115023
 20
204.677325
 30
0.0
 10
50.373406
 20
204.612558
 30
0.0
 10
50.544282
 20
204.483022
 30
0.0
  0
SPLINE
  5
101
100
AcDbEntity
  8
0
 62
7
100
AcDbSpline
 70
8
 71
3
 72
8
 73
4
 74
0
 40
0
 40
0
 40
0
 40
0
 40
1
 40
1
 40
1
 40
1
 10
50.544282
 20
204.483022
 30
0.0
 10
50.716536
 20
204.352109
 30
0.0
 10
50.802663
 20
204.157116
 30
0.0
 10
50.802663
 20
203.898046
 30
0.0
  0
SPLINE
  5
102
100
AcDbEntity
  8
0
 62
7
100
AcDbSpline
 70
8
 71
3
 72
8
 73
4
 74
0
 40
0
 40
0
 40
0
 40
0
 40
1
 40
1
 40
1
 40
1
 10
50.802663
 20
203.898046
 30
0.0
 10
50.802663
 20
203.702364
 30
0.0
 10
50.751676
 20
203.547335
 30
0.0
 10
50.649702
 20
203.432957
 30
0.0
  0
SPLINE
  5
103
100
AcDbEntity
  8
0
 62
7
100
AcDbSpline
 70
8
 71
3
 72
8
 73
4
 74
0
 40
0
 40
0
 40
0
 40
0
 40
1
 40
1
 40
1
 40
1
 10
50.649702
 20
203.432957
 30
0.0
 10
50.546348
 20
203.321336
 30
0.0
 10
50.396830
 20
203.256568
 30
0.0
 10
50.201149
 20
203.238654
 30
0.0
  0
SPLINE
  5
104
100
AcDbEntity
  8
0
 62
7
100
AcDbSpline
 70
8
 71
3
 72
8
 73
4
 74
0
 40
0
 40
0
 40
0
 40
0
 40
1
 40
1
 40
1
 40
1
 10
50.201149
 20
203.238654
 30
0.0
 10
50.436793
 20
203.216617
 30
0.0
 10
50.614560
 20
203.137380
 30
0.0
 10
50.734450
 20
203.000942
 30
0.0
  0
SPLINE
  5
105
100
AcDbEntity
  8
0
 62
7
100
AcDbSpline
 70
8
 71
3
 72
8
 73
4
 74
0
 40
0
 40
0
 40
0
 40
0
 40
1
 40
1
 40
1
 40
1
 10
50.734450
 20
203.000942
 30
0.0
 10
50.852963
 20
202.865894
 30
0.0
 10
50.912219
 20
202.676413
 30
0.0
 10
50.912219
 20
202.432500
 30
0.0
  0
SPLINE
  5
106
100
AcDbEntity
  8
0
 62
7
100
AcDbSpline
 70
8
 71
3
 72
8
 73
4
 74
0
 40
0
 40
0
 40
0
 40
0
 40
1
 40
1
 40
1
 40
1
 10
50.912219
 20
202.432500
 30
0.0
 10
50.912219
 20
202.136223
 30
0.0
 10
50.822646
 20
201.921249
 30
0.0
 10
50.643501
 20
201.787580
 30
0.0
  0
SPLINE
  5
107
100
AcDbEntity
  8
0
 62
7
100
AcDbSpline
 70
8
 71
3
 72
8
 73
4
 74
0
 40
0
 40
0
 40
0
 40
0
 40
1
 40
1
 40
1
 40
1
 10
50.643501
 20
201.787580
 30
0.0
 10
50.464355
 20
201.653910
 30
0.0
 10
50.172899
 20
201.587075
 30
0.0
 10
49.769133
 20
201.587075
 30
0.0
  0
LWPOLYLINE
  5
108
100
AcDbEntity
  8
0
 62
7
100
AcDbPolyline
 90
2
 70
0
 10
48.774878
 20
204.677325
 30
0.0
 10
49.769133
 20
204.677325
 30
0.0
  0
SPLINE
  5
109
100
AcDbEntity
  8
0
 62
7
100
AcDbSpline
 70
8
 71
3
 72
8
 73
4
 74
0
 40
0
 40
0
 40
0
 40
0
 40
1
 40
1
 40
1
 40
1
 10
49.769133
 20
203.474299
 30
0.0
 10
49.924852
 20
203.474299
 30
0.0
 10
50.035095
 20
203.502549
 30
0.0
 10
50.099863
 20
203.559047
 30
0.0
  0
SPLINE
  5
10a
100
AcDbEntity
  8
0
 62
7
100
AcDbSpline
 70
8
 71
3
 72
8
 73
4
 74
0
 40
0
 40
0
 40
0
 40
0
 40
1
 40
1
 40
1
 40
1
 10
50.099863
 20
203.559047
 30
0.0
 10
50.131559
 20
203.586609
 30
0.0
 10
50.155675
 20
203.621060
 30
0.0
 10
50.172210
 20
203.662401
 30
0.0
  0
SPLINE
  5
10b
100
AcDbEntity
  8
0
 62
7
100
AcDbSpline
 70
8
 71
3
 72
8
 73
4
 74
0
 40
0
 40
0
 40
0
 40
0
 40
1
 40
1
 40
1
 40
1
 10
50.172210
 20
203.662401
 30
0.0
 10
50.188744
 20
203.705120
 30
0.0
 10
50.197011
 20
203.760930
 30
0.0
 10
50.197011
 20
203.829833
 30
0.0
  0
SPLINE
  5
10c
100
AcDbEntity
  8
0
 62
7
100
AcDbSpline
 70
8
 71
3
 72
8
 73
4
 74
0
 40
0
 40
0
 40
0
 40
0
 40
1
 40
1
 40
1
 40
1
 10
50.197011
 20
203.829833
 30
0.0
 10
50.197011
 20
203.953855
 30
0.0
 10
50.163938
 20
204.045495
 30
0.0
 10
50.097792
 20
204.104752
 30
0.0
  0
SPLINE
  5
10d
100
AcDbEntity
  8
0
 62
7
100
AcDbSpline
 70
8
 71
3
 72
8
 73
4
 74
0
 40
0
 40
0
 40
0
 40
0
 40
1
 40
1
 40
1
 40
1
 10
50.097792
 20
204.104752
 30
0.0
 10
50.068855
 20
204.129557
 30
0.0
 10
50.028892
 20
204.150228
 30
0.0
 10
49.977904
 20
204.166764
 30
0.0
  0
SPLINE
  5
10e
100
AcDbEntity
  8
0
 62
7
100
AcDbSpline
 70
8
 71
3
 72
8
 73
4
 74
0
 40
0
 40
0
 40
0
 40
0
 40
1
 40
1
 40
1
 40
1
 10
49.977904
 20
204.166764
 30
0.0
 10
49.928294
 20
204.183297
 30
0.0
 10
49.858702
 20
204.191564
 30
0.0
 10
49.769130
 20
204.191564
 30
0.0
  0
LWPOLYLINE
  5
10f
100
AcDbEntity
  8
0
 62
7
100
AcDbPolyline
 90
3
 70
0
 10
49.769133
 20
201.587075
 30
0.0
 10
48.774878
 20
201.587075
 30
0.0
 10
48.774878
 20
204.677325
 30
0.0
  0
SPLINE
  5
110
100
AcDbEntity
  8
0
 62
7
100
AcDbSpline
 70
8
 71
3
 72
8
 73
4
 74
0
 40
0
 40
0
 40
0
 40
0
 40
1
 40
1
 40
1
 40
1
 10
49.769133
 20
202.074900
 30
0.0
 10
49.963436
 20
202.074900
 30
0.0
 10
50.099863
 20
202.107972
 30
0.0
 10
50.178412
 20
202.174118
 30
0.0
  0
SPLINE
  5
111
100
AcDbEntity
  8
0
 62
7
100
AcDbSpline
 70
8
 71
3
 72
8
 73
4
 74
0
 40
0
 40
0
 40
0
 40
0
 40
1
 40
1
 40
1
 40
1
 10
50.178412
 20
202.174118
 30
0.0
 10
50.255581
 20
202.240264
 30
0.0
 10
50.294166
 20
202.355331
 30
0.0
 10
50.294166
 20
202.519319
 30
0.0
  0
SPLINE
  5
112
100
AcDbEntity
  8
0
 62
7
100
AcDbSpline
 70
8
 71
3
 72
8
 73
4
 74
0
 40
0
 40
0
 40
0
 40
0
 40
1
 40
1
 40
1
 40
1
 10
50.294166
 20
202.519319
 30
0.0
 10
50.294166
 20
202.686060
 30
0.0
 10
50.253514
 20
202.805950
 30
0.0
 10
50.172210
 20
202.878986
 30
0.0
  0
SPLINE
  5
113
100
AcDbEntity
  8
0
 62
7
100
AcDbSpline
 70
8
 71
3
 72
8
 73
4
 74
0
 40
0
 40
0
 40
0
 40
0
 40
1
 40
1
 40
1
 40
1
 10
50.172210
 20
202.878986
 30
0.0
 10
50.090907
 20
202.952021
 30
0.0
 10
49.956548
 20
202.988538
 30
0.0
 10
49.769133
 20
202.988538
 30
0.0
  0
LWPOLYLINE
  5
114
100
AcDbEntity
  8
0
 62
7
100
AcDbPolyline
 90
4
 70
0
 10
49.769130
 20
204.191564
 30
0.0
 10
49.363985
 20
204.191564
 30
0.0
 10
49.363985
 20
203.474296
 30
0.0
 10
49.769133
 20
203.474299
 30
0.0
  0
LWPOLYLINE
  5
115
100
AcDbEntity
  8
0
 62
7
100
AcDbPolyline
 90
4
 70
0
 10
49.769133
 20
202.988538
 30
0.0
 10
49.363989
 20
202.988538
 30
0.0
 10
49.363989
 20
202.074900
 30
0.0
 10
49.769133
 20
202.074900
 30
0.0
  0
SPLINE
  5
116
100
AcDbEntity
  8
0
 62
7
100
AcDbSpline
 70
8
 71
3
 72
8
 73
4
 74
0
 40
0
 40
0
 40
0
 40
0
 40
1
 40
1
 40
1
 40
1
 10
51.476526
 20
201.171594
 30
0.0
 10
51.577122
 20
201.171594
 30
0.0
 10
51.658425
 20
201.175733
 30
0.0
 10
51.720437
 20
201.184012
 30
0.0
  0
SPLINE
  5
117
100
AcDbEntity
  8
0
 62
7
100
AcDbSpline
 70
8
 71
3
 72
8
 73
4
 74
0
 40
0
 40
0
 40
0
 40
0
 40
1
 40
1
 40
1
 40
1
 10
51.720437
 20
201.184012
 30
0.0
 10
51.782448
 20
201.190903
 30
0.0
 10
51.832747
 20
201.209506
 30
0.0
 10
51.871334
 20
201.239821
 30
0.0
  0
SPLINE
  5
118
100
AcDbEntity
  8
0
 62
7
100
AcDbSpline
 70
8
 71
3
 72
8
 73
4
 74
0
 40
0
 40
0
 40
0
 40
0
 40
1
 40
1
 40
1
 40
1
 10
51.871334
 20
201.239821
 30
0.0
 10
51.911297
 20
201.268761
 30
0.0
 10
51.947125
 20
201.315614
 30
0.0
 10
51.978818
 20
201.380382
 30
0.0
  0
SPLINE
  5
119
100
AcDbEntity
  8
0
 62
7
100
AcDbSpline
 70
8
 71
3
 72
8
 73
4
 74
0
 40
0
 40
0
 40
0
 40
0
 40
1
 40
1
 40
1
 40
1
 10
51.978818
 20
201.380382
 30
0.0
 10
52.010514
 20
201.445150
 30
0.0
 10
52.047033
 20
201.535411
 30
0.0
 10
52.088373
 20
201.651167
 30
0.0
  0
LWPOLYLINE
  5
11a
100
AcDbEntity
  8
0
 62
7
100
AcDbPolyline
 90
3
 70
0
 10
51.348365
 20
201.171594
 30
0.0
 10
51.414511
 20
201.171594
 30
0.0
 10
51.476526
 20
201.171594
 30
0.0
  0
SPLINE
  5
11b
100
AcDbEntity
  8
0
 62
7
100
AcDbSpline
 70
8
 71
3
 72
8
 73
4
 74
0
 40
0
 40
0
 40
0
 40
0
 40
1
 40
1
 40
1
 40
1
 10
52.555529
 20
201.336973
 30
0.0
 10
52.514188
 20
201.225351
 30
0.0
 10
52.463201
 20
201.121999
 30
0.0
 10
52.402568
 20
201.026916
 30
0.0
  0
SPLINE
  5
11c
100
AcDbEntity
  8
0
 62
7
100
AcDbSpline
 70
8
 71
3
 72
8
 73
4
 74
0
 40
0
 40
0
 40
0
 40
0
 40
1
 40
1
 40
1
 40
1
 10
52.402568
 20
201.026916
 30
0.0
 10
52.343311
 20
200.931831
 30
0.0
 10
52.268896
 20
200.855350
 30
0.0
 10
52.179323
 20
200.797473
 30
0.0
  0
SPLINE
  5
11d
100
AcDbEntity
  8
0
 62
7
100
AcDbSpline
 70
8
 71
3
 72
8
 73
4
 74
0
 40
0
 40
0
 40
0
 40
0
 40
1
 40
1
 40
1
 40
1
 10
52.179323
 20
200.797473
 30
0.0
 10
52.089750
 20
200.739594
 30
0.0
 10
51.979507
 20
200.710654
 30
0.0
 10
51.848594
 20
200.710654
 30
0.0
  0
LWPOLYLINE
  5
11e
100
AcDbEntity
  8
0
 62
7
100
AcDbPolyline
 90
7
 70
0
 10
52.088373
 20
201.651167
 30
0.0
 10
51.207808
 20
203.902194
 30
0.0
 10
51.844459
 20
203.902194
 30
0.0
 10
52.373626
 20
202.399441
 30
0.0
 10
52.880057
 20
203.902194
 30
0.0
 10
53.516712
 20
203.902194
 30
0.0
 10
52.555529
 20
201.336973
 30
0.0
  0
LWPOLYLINE
  5
11f
100
AcDbEntity
  8
0
 62
7
100
AcDbPolyline
 90
3
 70
0
 10
51.848594
 20
200.710654
 30
0.0
 10
51.348365
 20
200.710654
 30
0.0
 10
51.348365
 20
201.171594
 30
0.0
  0
LWPOLYLINE
  5
120
100
AcDbEntity
  8
0
 62
7
100
AcDbPolyline
 90
8
 70
1
 10
57.063785
 20
204.673194
 30
0.0
 10
57.809992
 20
204.673194
 30
0.0
 10
58.643017
 20
201.587075
 30
0.0
 10
58.033233
 20
201.587075
 30
0.0
 10
57.843065
 20
202.349819
 30
0.0
 10
57.026578
 20
202.349819
 30
0.0
 10
56.840540
 20
201.587075
 30
0.0
 10
56.230760
 20
201.587075
 30
0.0
  0
SPLINE
  5
121
100
AcDbEntity
  8
0
 62
7
100
AcDbSpline
 70
8
 71
3
 72
8
 73
4
 74
0
 40
0
 40
0
 40
0
 40
0
 40
1
 40
1
 40
1
 40
1
 10
59.711687
 20
201.527131
 30
0.0
 10
59.471906
 20
201.527131
 30
0.0
 10
59.277602
 20
201.595343
 30
0.0
 10
59.128775
 20
201.731766
 30
0.0
  0
SPLINE
  5
122
100
AcDbEntity
  8
0
 62
7
100
AcDbSpline
 70
8
 71
3
 72
8
 73
4
 74
0
 40
0
 40
0
 40
0
 40
0
 40
1
 40
1
 40
1
 40
1
 10
59.128775
 20
201.731766
 30
0.0
 10
58.981325
 20
201.869571
 30
0.0
 10
58.907600
 20
202.067321
 30
0.0
 10
58.907600
 20
202.325016
 30
0.0
  0
SPLINE
  5
123
100
AcDbEntity
  8
0
 62
7
100
AcDbSpline
 70
8
 71
3
 72
8
 73
4
 74
0
 40
0
 40
0
 40
0
 40
0
 40
1
 40
1
 40
1
 40
1
 10
58.907600
 20
202.325016
 30
0.0
 10
58.907600
 20
202.487623
 30
0.0
 10
58.936539
 20
202.619915
 30
0.0
 10
58.994416
 20
202.721891
 30
0.0
  0
SPLINE
  5
124
100
AcDbEntity
  8
0
 62
7
100
AcDbSpline
 70
8
 71
3
 72
8
 73
4
 74
0
 40
0
 40
0
 40
0
 40
0
 40
1
 40
1
 40
1
 40
1
 10
58.994416
 20
202.721891
 30
0.0
 10
59.053673
 20
202.825243
 30
0.0
 10
59.133599
 20
202.905168
 30
0.0
 10
59.234195
 20
202.961667
 30
0.0
  0
SPLINE
  5
125
100
AcDbEntity
  8
0
 62
7
100
AcDbSpline
 70
8
 71
3
 72
8
 73
4
 74
0
 40
0
 40
0
 40
0
 40
0
 40
1
 40
1
 40
1
 40
1
 10
59.234195
 20
202.961667
 30
0.0
 10
59.336169
 20
203.018168
 30
0.0
 10
59.451236
 20
203.056754
 30
0.0
 10
59.579396
 20
203.077424
 30
0.0
  0
SPLINE
  5
126
100
AcDbEntity
  8
0
 62
7
100
AcDbSpline
 70
8
 71
3
 72
8
 73
4
 74
0
 40
0
 40
0
 40
0
 40
0
 40
1
 40
1
 40
1
 40
1
 10
59.579396
 20
203.077424
 30
0.0
 10
59.707553
 20
203.099461
 30
0.0
 10
59.841911
 20
203.110479
 30
0.0
 10
59.982469
 20
203.110479
 30
0.0
  0
LWPOLYLINE
  5
127
100
AcDbEntity
  8
0
 62
7
100
AcDbPolyline
 90
3
 70
1
 10
57.725244
 20
202.852115
 30
0.0
 10
57.435853
 20
204.115085
 30
0.0
 10
57.148533
 20
202.852115
 30
0.0
  0
SPLINE
  5
128
100
AcDbEntity
  8
0
 62
7
100
AcDbSpline
 70
8
 71
3
 72
8
 73
4
 74
0
 40
0
 40
0
 40
0
 40
0
 40
1
 40
1
 40
1
 40
1
 10
60.402084
 20
203.211765
 30
0.0
 10
60.402084
 20
203.294447
 30
0.0
 10
60.380036
 20
203.357148
 30
0.0
 10
60.335939
 20
203.399867
 30
0.0
  0
SPLINE
  5
129
100
AcDbEntity
  8
0
 62
7
100
AcDbSpline
 70
8
 71
3
 72
8
 73
4
 74
0
 40
0
 40
0
 40
0
 40
0
 40
1
 40
1
 40
1
 40
1
 10
60.335939
 20
203.399867
 30
0.0
 10
60.293220
 20
203.442586
 30
0.0
 10
60.237409
 20
203.471524
 30
0.0
 10
60.168507
 20
203.486682
 30
0.0
  0
SPLINE
  5
12a
100
AcDbEntity
  8
0
 62
7
100
AcDbSpline
 70
8
 71
3
 72
8
 73
4
 74
0
 40
0
 40
0
 40
0
 40
0
 40
1
 40
1
 40
1
 40
1
 10
60.168507
 20
203.486682
 30
0.0
 10
60.100983
 20
203.501851
 30
0.0
 10
60.031391
 20
203.509436
 30
0.0
 10
59.959733
 20
203.509436
 30
0.0
  0
SPLINE
  5
12b
100
AcDbEntity
  8
0
 62
7
100
AcDbSpline
 70
8
 71
3
 72
8
 73
4
 74
0
 40
0
 40
0
 40
0
 40
0
 40
1
 40
1
 40
1
 40
1
 10
59.959733
 20
203.509436
 30
0.0
 10
59.813661
 20
203.509436
 30
0.0
 10
59.673102
 20
203.489455
 30
0.0
 10
59.538054
 20
203.449492
 30
0.0
  0
SPLINE
  5
12c
100
AcDbEntity
  8
0
 62
7
100
AcDbSpline
 70
8
 71
3
 72
8
 73
4
 74
0
 40
0
 40
0
 40
0
 40
0
 40
1
 40
1
 40
1
 40
1
 10
59.538054
 20
203.449492
 30
0.0
 10
59.404384
 20
203.409527
 30
0.0
 10
59.270714
 20
203.353027
 30
0.0
 10
59.137044
 20
203.279993
 30
0.0
  0
LWPOLYLINE
  5
12d
100
AcDbEntity
  8
0
 62
7
100
AcDbPolyline
 90
3
 70
0
 10
59.982469
 20
203.110479
 30
0.0
 10
60.402084
 20
203.110479
 30
0.0
 10
60.402084
 20
203.211765
 30
0.0
  0
SPLINE
  5
12e
100
AcDbEntity
  8
0
 62
7
100
AcDbSpline
 70
8
 71
3
 72
8
 73
4
 74
0
 40
0
 40
0
 40
0
 40
0
 40
1
 40
1
 40
1
 40
1
 10
59.137044
 20
203.796756
 30
0.0
 10
59.280359
 20
203.854633
 30
0.0
 10
59.422296
 20
203.895974
 30
0.0
 10
59.562857
 20
203.920779
 30
0.0
  0
SPLINE
  5
12f
100
AcDbEntity
  8
0
 62
7
100
AcDbSpline
 70
8
 71
3
 72
8
 73
4
 74
0
 40
0
 40
0
 40
0
 40
0
 40
1
 40
1
 40
1
 40
1
 10
59.562857
 20
203.920779
 30
0.0
 10
59.704796
 20
203.946962
 30
0.0
 10
59.848112
 20
203.960053
 30
0.0
 10
59.992806
 20
203.960053
 30
0.0
  0
SPLINE
  5
130
100
AcDbEntity
  8
0
 62
7
100
AcDbSpline
 70
8
 71
3
 72
8
 73
4
 74
0
 40
0
 40
0
 40
0
 40
0
 40
1
 40
1
 40
1
 40
1
 10
59.992806
 20
203.960053
 30
0.0
 10
60.246366
 20
203.960053
 30
0.0
 10
60.446871
 20
203.923535
 30
0.0
 10
60.594320
 20
203.850498
 30
0.0
  0
SPLINE
  5
131
100
AcDbEntity
  8
0
 62
7
100
AcDbSpline
 70
8
 71
3
 72
8
 73
4
 74
0
 40
0
 40
0
 40
0
 40
0
 40
1
 40
1
 40
1
 40
1
 10
60.594320
 20
203.850498
 30
0.0
 10
60.741770
 20
203.778842
 30
0.0
 10
60.846500
 20
203.667222
 30
0.0
 10
60.908511
 20
203.515638
 30
0.0
  0
SPLINE
  5
132
100
AcDbEntity
  8
0
 62
7
100
AcDbSpline
 70
8
 71
3
 72
8
 73
4
 74
0
 40
0
 40
0
 40
0
 40
0
 40
1
 40
1
 40
1
 40
1
 10
60.908511
 20
203.515638
 30
0.0
 10
60.971903
 20
203.365430
 30
0.0
 10
61.003599
 20
203.173882
 30
0.0
 10
61.003599
 20
202.940994
 30
0.0
  0
SPLINE
  5
133
100
AcDbEntity
  8
0
 62
7
100
AcDbSpline
 70
8
 71
3
 72
8
 73
4
 74
0
 40
0
 40
0
 40
0
 40
0
 40
1
 40
1
 40
1
 40
1
 10
61.003599
 20
202.940994
 30
0.0
 10
61.003599
 20
202.887250
 30
0.0
 10
61.002223
 20
202.818347
 30
0.0
 10
60.999472
 20
202.734287
 30
0.0
  0
SPLINE
  5
134
100
AcDbEntity
  8
0
 62
7
100
AcDbSpline
 70
8
 71
3
 72
8
 73
4
 74
0
 40
0
 40
0
 40
0
 40
0
 40
1
 40
1
 40
1
 40
1
 10
60.999472
 20
202.734287
 30
0.0
 10
60.998061
 20
202.650228
 30
0.0
 10
60.997355
 20
202.566168
 30
0.0
 10
60.997355
 20
202.482108
 30
0.0
  0
SPLINE
  5
135
100
AcDbEntity
  8
0
 62
7
100
AcDbSpline
 70
8
 71
3
 72
8
 73
4
 74
0
 40
0
 40
0
 40
0
 40
0
 40
1
 40
1
 40
1
 40
1
 10
60.997355
 20
202.482108
 30
0.0
 10
60.997355
 20
202.407693
 30
0.0
 10
60.996649
 20
202.337412
 30
0.0
 10
60.995238
 20
202.271266
 30
0.0
  0
SPLINE
  5
136
100
AcDbEntity
  8
0
 62
7
100
AcDbSpline
 70
8
 71
3
 72
8
 73
4
 74
0
 40
0
 40
0
 40
0
 40
0
 40
1
 40
1
 40
1
 40
1
 10
60.995238
 20
202.271266
 30
0.0
 10
60.993827
 20
202.205120
 30
0.0
 10
60.993122
 20
202.149310
 30
0.0
 10
60.993122
 20
202.103834
 30
0.0
  0
SPLINE
  5
137
100
AcDbEntity
  8
0
 62
7
100
AcDbSpline
 70
8
 71
3
 72
8
 73
4
 74
0
 40
0
 40
0
 40
0
 40
0
 40
1
 40
1
 40
1
 40
1
 10
60.993122
 20
202.103834
 30
0.0
 10
60.993122
 20
202.063872
 30
0.0
 10
60.995191
 20
202.011507
 30
0.0
 10
60.999331
 20
201.946739
 30
0.0
  0
SPLINE
  5
138
100
AcDbEntity
  8
0
 62
7
100
AcDbSpline
 70
8
 71
3
 72
8
 73
4
 74
0
 40
0
 40
0
 40
0
 40
0
 40
1
 40
1
 40
1
 40
1
 10
60.999331
 20
201.946739
 30
0.0
 10
61.003470
 20
201.883349
 30
0.0
 10
61.013112
 20
201.818582
 30
0.0
 10
61.028258
 20
201.752436
 30
0.0
  0
SPLINE
  5
139
100
AcDbEntity
  8
0
 62
7
100
AcDbSpline
 70
8
 71
3
 72
8
 73
4
 74
0
 40
0
 40
0
 40
0
 40
0
 40
1
 40
1
 40
1
 40
1
 10
61.028258
 20
201.752436
 30
0.0
 10
61.043404
 20
201.686290
 30
0.0
 10
61.066831
 20
201.631168
 30
0.0
 10
61.098539
 20
201.587071
 30
0.0
  0
LWPOLYLINE
  5
13a
100
AcDbEntity
  8
0
 62
7
100
AcDbPolyline
 90
2
 70
0
 10
59.137044
 20
203.279993
 30
0.0
 10
59.137044
 20
203.796756
 30
0.0
  0
SPLINE
  5
13b
100
AcDbEntity
  8
0
 62
7
100
AcDbSpline
 70
8
 71
3
 72
8
 73
4
 74
0
 40
0
 40
0
 40
0
 40
0
 40
1
 40
1
 40
1
 40
1
 10
60.499091
 20
201.587071
 30
0.0
 10
60.472908
 20
201.631168
 30
0.0
 10
60.453616
 20
201.672509
 30
0.0
 10
60.441215
 20
201.711094
 30
0.0
  0
SPLINE
  5
13c
100
AcDbEntity
  8
0
 62
7
100
AcDbSpline
 70
8
 71
3
 72
8
 73
4
 74
0
 40
0
 40
0
 40
0
 40
0
 40
1
 40
1
 40
1
 40
1
 10
60.441215
 20
201.711094
 30
0.0
 10
60.428820
 20
201.749678
 30
0.0
 10
60.419860
 20
201.794465
 30
0.0
 10
60.414333
 20
201.845453
 30
0.0
  0
SPLINE
  5
13d
100
AcDbEntity
  8
0
 62
7
100
AcDbSpline
 70
8
 71
3
 72
8
 73
4
 74
0
 40
0
 40
0
 40
0
 40
0
 40
1
 40
1
 40
1
 40
1
 10
60.414333
 20
201.845453
 30
0.0
 10
60.333029
 20
201.736588
 30
0.0
 10
60.231055
 20
201.655972
 30
0.0
 10
60.108411
 20
201.603606
 30
0.0
  0
SPLINE
  5
13e
100
AcDbEntity
  8
0
 62
7
100
AcDbSpline
 70
8
 71
3
 72
8
 73
4
 74
0
 40
0
 40
0
 40
0
 40
0
 40
1
 40
1
 40
1
 40
1
 10
60.108411
 20
201.603606
 30
0.0
 10
59.987142
 20
201.552620
 30
0.0
 10
59.854851
 20
201.527127
 30
0.0
 10
59.711536
 20
201.527127
 30
0.0
  0
LWPOLYLINE
  5
13f
100
AcDbEntity
  8
0
 62
7
100
AcDbPolyline
 90
2
 70
0
 10
61.098539
 20
201.587071
 30
0.0
 10
60.499091
 20
201.587071
 30
0.0
  0
SPLINE
  5
140
100
AcDbEntity
  8
0
 62
7
100
AcDbSpline
 70
8
 71
3
 72
8
 73
4
 74
0
 40
0
 40
0
 40
0
 40
0
 40
1
 40
1
 40
1
 40
1
 10
59.910125
 20
201.946742
 30
0.0
 10
60.036904
 20
201.946742
 30
0.0
 10
60.135434
 20
201.981193
 30
0.0
 10
60.205714
 20
202.050096
 30
0.0
  0
SPLINE
  5
141
100
AcDbEntity
  8
0
 62
7
100
AcDbSpline
 70
8
 71
3
 72
8
 73
4
 74
0
 40
0
 40
0
 40
0
 40
0
 40
1
 40
1
 40
1
 40
1
 10
60.205714
 20
202.050096
 30
0.0
 10
60.277370
 20
202.120376
 30
0.0
 10
60.327668
 20
202.207882
 30
0.0
 10
60.356608
 20
202.312612
 30
0.0
  0
SPLINE
  5
142
100
AcDbEntity
  8
0
 62
7
100
AcDbSpline
 70
8
 71
3
 72
8
 73
4
 74
0
 40
0
 40
0
 40
0
 40
0
 40
1
 40
1
 40
1
 40
1
 10
60.356608
 20
202.312612
 30
0.0
 10
60.386926
 20
202.418721
 30
0.0
 10
60.402084
 20
202.525518
 30
0.0
 10
60.402084
 20
202.633005
 30
0.0
  0
LWPOLYLINE
  5
143
100
AcDbEntity
  8
0
 62
7
100
AcDbPolyline
 90
2
 70
0
 10
59.711536
 20
201.527127
 30
0.0
 10
59.711687
 20
201.527131
 30
0.0
  0
SPLINE
  5
144
100
AcDbEntity
  8
0
 62
7
100
AcDbSpline
 70
8
 71
3
 72
8
 73
4
 74
0
 40
0
 40
0
 40
0
 40
0
 40
1
 40
1
 40
1
 40
1
 10
60.160238
 20
202.674347
 30
0.0
 10
60.065152
 20
202.674347
 30
0.0
 10
59.970757
 20
202.667456
 30
0.0
 10
59.877052
 20
202.653674
 30
0.0
  0
SPLINE
  5
145
100
AcDbEntity
  8
0
 62
7
100
AcDbSpline
 70
8
 71
3
 72
8
 73
4
 74
0
 40
0
 40
0
 40
0
 40
0
 40
1
 40
1
 40
1
 40
1
 10
59.877052
 20
202.653674
 30
0.0
 10
59.783345
 20
202.641280
 30
0.0
 10
59.705485
 20
202.608896
 30
0.0
 10
59.643474
 20
202.556523
 30
0.0
  0
SPLINE
  5
146
100
AcDbEntity
  8
0
 62
7
100
AcDbSpline
 70
8
 71
3
 72
8
 73
4
 74
0
 40
0
 40
0
 40
0
 40
0
 40
1
 40
1
 40
1
 40
1
 10
59.643474
 20
202.556523
 30
0.0
 10
59.582839
 20
202.505534
 30
0.0
 10
59.552521
 20
202.420784
 30
0.0
 10
59.552521
 20
202.302272
 30
0.0
  0
SPLINE
  5
147
100
AcDbEntity
  8
0
 62
7
100
AcDbSpline
 70
8
 71
3
 72
8
 73
4
 74
0
 40
0
 40
0
 40
0
 40
0
 40
1
 40
1
 40
1
 40
1
 10
59.552521
 20
202.302272
 30
0.0
 10
59.552521
 20
202.189273
 30
0.0
 10
59.583528
 20
202.101767
 30
0.0
 10
59.645541
 20
202.039756
 30
0.0
  0
SPLINE
  5
148
100
AcDbEntity
  8
0
 62
7
100
AcDbSpline
 70
8
 71
3
 72
8
 73
4
 74
0
 40
0
 40
0
 40
0
 40
0
 40
1
 40
1
 40
1
 40
1
 10
59.645541
 20
202.039756
 30
0.0
 10
59.708931
 20
201.977744
 30
0.0
 10
59.797125
 20
201.946739
 30
0.0
 10
59.910125
 20
201.946739
 30
0.0
  0
LWPOLYLINE
  5
149
100
AcDbEntity
  8
0
 62
7
100
AcDbPolyline
 90
3
 70
0
 10
60.402084
 20
202.633005
 30
0.0
 10
60.402084
 20
202.674347
 30
0.0
 10
60.160238
 20
202.674347
 30
0.0
  0
LWPOLYLINE
  5
14a
100
AcDbEntity
  8
0
 62
7
100
AcDbPolyline
 90
1
 70
1
 10
59.910125
 20
201.946739
 30
0.0
  0
SPLINE
  5
14b
100
AcDbEntity
  8
0
 62
7
100
AcDbSpline
 70
8
 71
3
 72
8
 73
4
 74
0
 40
0
 40
0
 40
0
 40
0
 40
1
 40
1
 40
1
 40
1
 10
62.363721
 20
203.542512
 30
0.0
 10
62.422978
 20
203.673426
 30
0.0
 10
62.513240
 20
203.775400
 30
0.0
 10
62.634506
 20
203.848434
 30
0.0
  0
SPLINE
  5
14c
100
AcDbEntity
  8
0
 62
7
100
AcDbSpline
 70
8
 71
3
 72
8
 73
4
 74
0
 40
0
 40
0
 40
0
 40
0
 40
1
 40
1
 40
1
 40
1
 10
62.634506
 20
203.848434
 30
0.0
 10
62.757153
 20
203.921471
 30
0.0
 10
62.900469
 20
203.957990
 30
0.0
 10
63.064454
 20
203.957990
 30
0.0
  0
SPLINE
  5
14d
100
AcDbEntity
  8
0
 62
7
100
AcDbSpline
 70
8
 71
3
 72
8
 73
4
 74
0
 40
0
 40
0
 40
0
 40
0
 40
1
 40
1
 40
1
 40
1
 10
63.064454
 20
203.957990
 30
0.0
 10
63.233955
 20
203.957990
 30
0.0
 10
63.391051
 20
203.918716
 30
0.0
 10
63.535744
 20
203.840169
 30
0.0
  0
LWPOLYLINE
  5
14e
100
AcDbEntity
  8
0
 62
7
100
AcDbPolyline
 90
3
 70
0
 10
61.758075
 20
203.902180
 30
0.0
 10
62.303777
 20
203.902180
 30
0.0
 10
62.363721
 20
203.542512
 30
0.0
  0
SPLINE
  5
14f
100
AcDbEntity
  8
0
 62
7
100
AcDbSpline
 70
8
 71
3
 72
8
 73
4
 74
0
 40
0
 40
0
 40
0
 40
0
 40
1
 40
1
 40
1
 40
1
 10
63.535744
 20
203.263458
 30
0.0
 10
63.402074
 20
203.384727
 30
0.0
 10
63.227064
 20
203.445361
 30
0.0
 10
63.010712
 20
203.445361
 30
0.0
  0
SPLINE
  5
150
100
AcDbEntity
  8
0
 62
7
100
AcDbSpline
 70
8
 71
3
 72
8
 73
4
 74
0
 40
0
 40
0
 40
0
 40
0
 40
1
 40
1
 40
1
 40
1
 10
63.010712
 20
203.445361
 30
0.0
 10
62.835701
 20
203.445361
 30
0.0
 10
62.693763
 20
203.405397
 30
0.0
 10
62.584898
 20
203.325469
 30
0.0
  0
SPLINE
  5
151
100
AcDbEntity
  8
0
 62
7
100
AcDbSpline
 70
8
 71
3
 72
8
 73
4
 74
0
 40
0
 40
0
 40
0
 40
0
 40
1
 40
1
 40
1
 40
1
 10
62.584898
 20
203.325469
 30
0.0
 10
62.476033
 20
203.245544
 30
0.0
 10
62.408509
 20
203.130478
 30
0.0
 10
62.382326
 20
202.980273
 30
0.0
  0
SPLINE
  5
152
100
AcDbEntity
  8
0
 62
7
100
AcDbSpline
 70
8
 71
3
 72
8
 73
4
 74
0
 40
0
 40
0
 40
0
 40
0
 40
1
 40
1
 40
1
 40
1
 10
62.382326
 20
202.980273
 30
0.0
 10
62.375435
 20
202.944442
 30
0.0
 10
62.370614
 20
202.901034
 30
0.0
 10
62.367862
 20
202.850048
 30
0.0
  0
SPLINE
  5
153
100
AcDbEntity
  8
0
 62
7
100
AcDbSpline
 70
8
 71
3
 72
8
 73
4
 74
0
 40
0
 40
0
 40
0
 40
0
 40
1
 40
1
 40
1
 40
1
 10
62.367862
 20
202.850048
 30
0.0
 10
62.365111
 20
202.799060
 30
0.0
 10
62.363735
 20
202.733603
 30
0.0
 10
62.363735
 20
202.653678
 30
0.0
  0
LWPOLYLINE
  5
154
100
AcDbEntity
  8
0
 62
7
100
AcDbPolyline
 90
2
 70
0
 10
63.535744
 20
203.840169
 30
0.0
 10
63.535744
 20
203.263458
 30
0.0
  0
SPLINE
  5
155
100
AcDbEntity
  8
0
 62
7
100
AcDbSpline
 70
8
 71
3
 72
8
 73
4
 74
0
 40
0
 40
0
 40
0
 40
0
 40
1
 40
1
 40
1
 40
1
 10
65.081903
 20
201.527131
 30
0.0
 10
64.862795
 20
201.527131
 30
0.0
 10
64.672626
 20
201.576050
 30
0.0
 10
64.511394
 20
201.673890
 30
0.0
  0
SPLINE
  5
156
100
AcDbEntity
  8
0
 62
7
100
AcDbSpline
 70
8
 71
3
 72
8
 73
4
 74
0
 40
0
 40
0
 40
0
 40
0
 40
1
 40
1
 40
1
 40
1
 10
64.511394
 20
201.673890
 30
0.0
 10
64.351544
 20
201.773110
 30
0.0
 10
64.228210
 20
201.913669
 30
0.0
 10
64.141394
 20
202.095569
 30
0.0
  0
SPLINE
  5
157
100
AcDbEntity
  8
0
 62
7
100
AcDbSpline
 70
8
 71
3
 72
8
 73
4
 74
0
 40
0
 40
0
 40
0
 40
0
 40
1
 40
1
 40
1
 40
1
 10
64.141394
 20
202.095569
 30
0.0
 10
64.054577
 20
202.277471
 30
0.0
 10
64.011169
 20
202.492445
 30
0.0
 10
64.011169
 20
202.740493
 30
0.0
  0
SPLINE
  5
158
100
AcDbEntity
  8
0
 62
7
100
AcDbSpline
 70
8
 71
3
 72
8
 73
4
 74
0
 40
0
 40
0
 40
0
 40
0
 40
1
 40
1
 40
1
 40
1
 10
64.011169
 20
202.740493
 30
0.0
 10
64.011169
 20
202.988540
 30
0.0
 10
64.054577
 20
203.203514
 30
0.0
 10
64.141394
 20
203.385413
 30
0.0
  0
SPLINE
  5
159
100
AcDbEntity
  8
0
 62
7
100
AcDbSpline
 70
8
 71
3
 72
8
 73
4
 74
0
 40
0
 40
0
 40
0
 40
0
 40
1
 40
1
 40
1
 40
1
 10
64.141394
 20
203.385413
 30
0.0
 10
64.229588
 20
203.568693
 30
0.0
 10
64.354300
 20
203.709943
 30
0.0
 10
64.515529
 20
203.809163
 30
0.0
  0
SPLINE
  5
15a
100
AcDbEntity
  8
0
 62
7
100
AcDbSpline
 70
8
 71
3
 72
8
 73
4
 74
0
 40
0
 40
0
 40
0
 40
0
 40
1
 40
1
 40
1
 40
1
 10
64.515529
 20
203.809163
 30
0.0
 10
64.678138
 20
203.908381
 30
0.0
 10
64.870375
 20
203.957990
 30
0.0
 10
65.092240
 20
203.957990
 30
0.0
  0
SPLINE
  5
15b
100
AcDbEntity
  8
0
 62
7
100
AcDbSpline
 70
8
 71
3
 72
8
 73
4
 74
0
 40
0
 40
0
 40
0
 40
0
 40
1
 40
1
 40
1
 40
1
 10
65.092240
 20
203.957990
 30
0.0
 10
65.311348
 20
203.957990
 30
0.0
 10
65.500139
 20
203.909070
 30
0.0
 10
65.658614
 20
203.811231
 30
0.0
  0
SPLINE
  5
15c
100
AcDbEntity
  8
0
 62
7
100
AcDbSpline
 70
8
 71
3
 72
8
 73
4
 74
0
 40
0
 40
0
 40
0
 40
0
 40
1
 40
1
 40
1
 40
1
 10
65.658614
 20
203.811231
 30
0.0
 10
65.817089
 20
203.714767
 30
0.0
 10
65.939046
 20
203.576273
 30
0.0
 10
66.024484
 20
203.395750
 30
0.0
  0
SPLINE
  5
15d
100
AcDbEntity
  8
0
 62
7
100
AcDbSpline
 70
8
 71
3
 72
8
 73
4
 74
0
 40
0
 40
0
 40
0
 40
0
 40
1
 40
1
 40
1
 40
1
 10
66.024484
 20
203.395750
 30
0.0
 10
66.111300
 20
203.215226
 30
0.0
 10
66.154708
 20
203.000942
 30
0.0
 10
66.154708
 20
202.752897
 30
0.0
  0
SPLINE
  5
15e
100
AcDbEntity
  8
0
 62
7
100
AcDbSpline
 70
8
 71
3
 72
8
 73
4
 74
0
 40
0
 40
0
 40
0
 40
0
 40
1
 40
1
 40
1
 40
1
 10
66.154708
 20
202.752897
 30
0.0
 10
66.154708
 20
202.500714
 30
0.0
 10
66.110611
 20
202.282983
 30
0.0
 10
66.022417
 20
202.099703
 30
0.0
  0
SPLINE
  5
15f
100
AcDbEntity
  8
0
 62
7
100
AcDbSpline
 70
8
 71
3
 72
8
 73
4
 74
0
 40
0
 40
0
 40
0
 40
0
 40
1
 40
1
 40
1
 40
1
 10
66.022417
 20
202.099703
 30
0.0
 10
65.935600
 20
201.916426
 30
0.0
 10
65.812266
 20
201.775177
 30
0.0
 10
65.652412
 20
201.675957
 30
0.0
  0
SPLINE
  5
160
100
AcDbEntity
  8
0
 62
7
100
AcDbSpline
 70
8
 71
3
 72
8
 73
4
 74
0
 40
0
 40
0
 40
0
 40
0
 40
1
 40
1
 40
1
 40
1
 10
65.652412
 20
201.675957
 30
0.0
 10
65.492559
 20
201.576739
 30
0.0
 10
65.302390
 20
201.527131
 30
0.0
 10
65.081903
 20
201.527131
 30
0.0
  0
LWPOLYLINE
  5
161
100
AcDbEntity
  8
0
 62
7
100
AcDbPolyline
 90
4
 70
0
 10
62.363735
 20
202.653678
 30
0.0
 10
62.363735
 20
201.587075
 30
0.0
 10
61.758089
 20
201.587075
 30
0.0
 10
61.758075
 20
203.902180
 30
0.0
  0
SPLINE
  5
162
100
AcDbEntity
  8
0
 62
7
100
AcDbSpline
 70
8
 71
3
 72
8
 73
4
 74
0
 40
0
 40
0
 40
0
 40
0
 40
1
 40
1
 40
1
 40
1
 10
65.084020
 20
202.019090
 30
0.0
 10
65.225959
 20
202.019090
 30
0.0
 10
65.338959
 20
202.083858
 30
0.0
 10
65.423019
 20
202.213393
 30
0.0
  0
SPLINE
  5
163
100
AcDbEntity
  8
0
 62
7
100
AcDbSpline
 70
8
 71
3
 72
8
 73
4
 74
0
 40
0
 40
0
 40
0
 40
0
 40
1
 40
1
 40
1
 40
1
 10
65.423019
 20
202.213393
 30
0.0
 10
65.507078
 20
202.344307
 30
0.0
 10
65.549108
 20
202.520696
 30
0.0
 10
65.549108
 20
202.742560
 30
0.0
  0
SPLINE
  5
164
100
AcDbEntity
  8
0
 62
7
100
AcDbSpline
 70
8
 71
3
 72
8
 73
4
 74
0
 40
0
 40
0
 40
0
 40
0
 40
1
 40
1
 40
1
 40
1
 10
65.549108
 20
202.742560
 30
0.0
 10
65.549108
 20
202.965803
 30
0.0
 10
65.507078
 20
203.142192
 30
0.0
 10
65.423019
 20
203.271727
 30
0.0
  0
SPLINE
  5
165
100
AcDbEntity
  8
0
 62
7
100
AcDbSpline
 70
8
 71
3
 72
8
 73
4
 74
0
 40
0
 40
0
 40
0
 40
0
 40
1
 40
1
 40
1
 40
1
 10
65.423019
 20
203.271727
 30
0.0
 10
65.338959
 20
203.401263
 30
0.0
 10
65.225959
 20
203.466030
 30
0.0
 10
65.084020
 20
203.466030
 30
0.0
  0
SPLINE
  5
166
100
AcDbEntity
  8
0
 62
7
100
AcDbSpline
 70
8
 71
3
 72
8
 73
4
 74
0
 40
0
 40
0
 40
0
 40
0
 40
1
 40
1
 40
1
 40
1
 10
65.084020
 20
203.466030
 30
0.0
 10
64.940705
 20
203.466030
 30
0.0
 10
64.827017
 20
203.400573
 30
0.0
 10
64.742954
 20
203.269660
 30
0.0
  0
SPLINE
  5
167
100
AcDbEntity
  8
0
 62
7
100
AcDbSpline
 70
8
 71
3
 72
8
 73
4
 74
0
 40
0
 40
0
 40
0
 40
0
 40
1
 40
1
 40
1
 40
1
 10
64.742954
 20
203.269660
 30
0.0
 10
64.658894
 20
203.140124
 30
0.0
 10
64.616864
 20
202.964425
 30
0.0
 10
64.616864
 20
202.742560
 30
0.0
  0
SPLINE
  5
168
100
AcDbEntity
  8
0
 62
7
100
AcDbSpline
 70
8
 71
3
 72
8
 73
4
 74
0
 40
0
 40
0
 40
0
 40
0
 40
1
 40
1
 40
1
 40
1
 10
64.616864
 20
202.742560
 30
0.0
 10
64.616864
 20
202.520696
 30
0.0
 10
64.658894
 20
202.344307
 30
0.0
 10
64.742954
 20
202.213393
 30
0.0
  0
SPLINE
  5
169
100
AcDbEntity
  8
0
 62
7
100
AcDbSpline
 70
8
 71
3
 72
8
 73
4
 74
0
 40
0
 40
0
 40
0
 40
0
 40
1
 40
1
 40
1
 40
1
 10
64.742954
 20
202.213393
 30
0.0
 10
64.827017
 20
202.083858
 30
0.0
 10
64.940705
 20
202.019090
 30
0.0
 10
65.084020
 20
202.019090
 30
0.0
  0
LWPOLYLINE
  5
16a
100
AcDbEntity
  8
0
 62
7
100
AcDbPolyline
 90
1
 70
1
 10
65.081903
 20
201.527131
 30
0.0
  0
LWPOLYLINE
  5
16b
100
AcDbEntity
  8
0
 62
7
100
AcDbPolyline
 90
1
 70
1
 10
65.084020
 20
202.019090
 30
0.0
  0
SPLINE
  5
16c
100
AcDbEntity
  8
0
 62
7
100
AcDbSpline
 70
8
 71
3
 72
8
 73
4
 74
0
 40
0
 40
0
 40
0
 40
0
 40
1
 40
1
 40
1
 40
1
 10
67.314378
 20
203.554913
 30
0.0
 10
67.357097
 20
203.684448
 30
0.0
 10
67.430132
 20
203.783667
 30
0.0
 10
67.533485
 20
203.852569
 30
0.0
  0
SPLINE
  5
16d
100
AcDbEntity
  8
0
 62
7
100
AcDbSpline
 70
8
 71
3
 72
8
 73
4
 74
0
 40
0
 40
0
 40
0
 40
0
 40
1
 40
1
 40
1
 40
1
 10
67.533485
 20
203.852569
 30
0.0
 10
67.638215
 20
203.922849
 30
0.0
 10
67.764995
 20
203.957990
 30
0.0
 10
67.913825
 20
203.957990
 30
0.0
  0
SPLINE
  5
16e
100
AcDbEntity
  8
0
 62
7
100
AcDbSpline
 70
8
 71
3
 72
8
 73
4
 74
0
 40
0
 40
0
 40
0
 40
0
 40
1
 40
1
 40
1
 40
1
 10
67.913825
 20
203.957990
 30
0.0
 10
68.128799
 20
203.957990
 30
0.0
 10
68.292096
 20
203.884265
 30
0.0
 10
68.403717
 20
203.736816
 30
0.0
  0
SPLINE
  5
16f
100
AcDbEntity
  8
0
 62
7
100
AcDbSpline
 70
8
 71
3
 72
8
 73
4
 74
0
 40
0
 40
0
 40
0
 40
0
 40
1
 40
1
 40
1
 40
1
 10
68.403717
 20
203.736816
 30
0.0
 10
68.515339
 20
203.589366
 30
0.0
 10
68.571149
 20
203.373702
 30
0.0
 10
68.571149
 20
203.089824
 30
0.0
  0
LWPOLYLINE
  5
170
100
AcDbEntity
  8
0
 62
7
100
AcDbPolyline
 90
3
 70
0
 10
66.712863
 20
203.902180
 30
0.0
 10
67.254434
 20
203.902180
 30
0.0
 10
67.314378
 20
203.554913
 30
0.0
  0
SPLINE
  5
171
100
AcDbEntity
  8
0
 62
7
100
AcDbSpline
 70
8
 71
3
 72
8
 73
4
 74
0
 40
0
 40
0
 40
0
 40
0
 40
1
 40
1
 40
1
 40
1
 10
67.969635
 20
202.996807
 30
0.0
 10
67.969635
 20
203.159417
 30
0.0
 10
67.946208
 20
203.277928
 30
0.0
 10
67.899354
 20
203.352340
 30
0.0
  0
SPLINE
  5
172
100
AcDbEntity
  8
0
 62
7
100
AcDbSpline
 70
8
 71
3
 72
8
 73
4
 74
0
 40
0
 40
0
 40
0
 40
0
 40
1
 40
1
 40
1
 40
1
 10
67.899354
 20
203.352340
 30
0.0
 10
67.853879
 20
203.428134
 30
0.0
 10
67.782909
 20
203.466030
 30
0.0
 10
67.686446
 20
203.466030
 30
0.0
  0
SPLINE
  5
173
100
AcDbEntity
  8
0
 62
7
100
AcDbSpline
 70
8
 71
3
 72
8
 73
4
 74
0
 40
0
 40
0
 40
0
 40
0
 40
1
 40
1
 40
1
 40
1
 10
67.686446
 20
203.466030
 30
0.0
 10
67.569314
 20
203.466030
 30
0.0
 10
67.477675
 20
203.416421
 30
0.0
 10
67.411529
 20
203.317204
 30
0.0
  0
SPLINE
  5
174
100
AcDbEntity
  8
0
 62
7
100
AcDbSpline
 70
8
 71
3
 72
8
 73
4
 74
0
 40
0
 40
0
 40
0
 40
0
 40
1
 40
1
 40
1
 40
1
 10
67.411529
 20
203.317204
 30
0.0
 10
67.346762
 20
203.217984
 30
0.0
 10
67.314378
 20
203.082936
 30
0.0
 10
67.314378
 20
202.912059
 30
0.0
  0
LWPOLYLINE
  5
175
100
AcDbEntity
  8
0
 62
7
100
AcDbPolyline
 90
4
 70
0
 10
68.571149
 20
203.089824
 30
0.0
 10
68.571149
 20
201.587075
 30
0.0
 10
67.969635
 20
201.587075
 30
0.0
 10
67.969635
 20
202.996807
 30
0.0
  0
LWPOLYLINE
  5
176
100
AcDbEntity
  8
0
 62
7
100
AcDbPolyline
 90
4
 70
0
 10
67.314378
 20
202.912059
 30
0.0
 10
67.314378
 20
201.587075
 30
0.0
 10
66.712863
 20
201.587075
 30
0.0
 10
66.712863
 20
203.902180
 30
0.0
  0
SPLINE
  5
177
100
AcDbEntity
  8
0
 62
7
100
AcDbSpline
 70
8
 71
3
 72
8
 73
4
 74
0
 40
0
 40
0
 40
0
 40
0
 40
1
 40
1
 40
1
 40
1
 10
75.392440
 20
201.527131
 30
0.0
 10
74.994189
 20
201.527131
 30
0.0
 10
74.691021
 20
201.629794
 30
0.0
 10
74.482936
 20
201.835120
 30
0.0
  0
SPLINE
  5
178
100
AcDbEntity
  8
0
 62
7
100
AcDbSpline
 70
8
 71
3
 72
8
 73
4
 74
0
 40
0
 40
0
 40
0
 40
0
 40
1
 40
1
 40
1
 40
1
 10
74.482936
 20
201.835120
 30
0.0
 10
74.276229
 20
202.041827
 30
0.0
 10
74.172876
 20
202.340172
 30
0.0
 10
74.172876
 20
202.730156
 30
0.0
  0
SPLINE
  5
179
100
AcDbEntity
  8
0
 62
7
100
AcDbSpline
 70
8
 71
3
 72
8
 73
4
 74
0
 40
0
 40
0
 40
0
 40
0
 40
1
 40
1
 40
1
 40
1
 10
74.172876
 20
202.730156
 30
0.0
 10
74.172876
 20
202.976826
 30
0.0
 10
74.215595
 20
203.191801
 30
0.0
 10
74.301033
 20
203.375081
 30
0.0
  0
SPLINE
  5
17a
100
AcDbEntity
  8
0
 62
7
100
AcDbSpline
 70
8
 71
3
 72
8
 73
4
 74
0
 40
0
 40
0
 40
0
 40
0
 40
1
 40
1
 40
1
 40
1
 10
74.301033
 20
203.375081
 30
0.0
 10
74.386474
 20
203.559736
 30
0.0
 10
74.513943
 20
203.703052
 30
0.0
 10
74.683441
 20
203.805029
 30
0.0
  0
SPLINE
  5
17b
100
AcDbEntity
  8
0
 62
7
100
AcDbSpline
 70
8
 71
3
 72
8
 73
4
 74
0
 40
0
 40
0
 40
0
 40
0
 40
1
 40
1
 40
1
 40
1
 10
74.683441
 20
203.805029
 30
0.0
 10
74.854317
 20
203.907003
 30
0.0
 10
75.067914
 20
203.957990
 30
0.0
 10
75.324231
 20
203.957990
 30
0.0
  0
SPLINE
  5
17c
100
AcDbEntity
  8
0
 62
7
100
AcDbSpline
 70
8
 71
3
 72
8
 73
4
 74
0
 40
0
 40
0
 40
0
 40
0
 40
1
 40
1
 40
1
 40
1
 10
75.324231
 20
203.957990
 30
0.0
 10
75.535069
 20
203.957990
 30
0.0
 10
75.717659
 20
203.909070
 30
0.0
 10
75.871999
 20
203.811231
 30
0.0
  0
SPLINE
  5
17d
100
AcDbEntity
  8
0
 62
7
100
AcDbSpline
 70
8
 71
3
 72
8
 73
4
 74
0
 40
0
 40
0
 40
0
 40
0
 40
1
 40
1
 40
1
 40
1
 10
75.871999
 20
203.811231
 30
0.0
 10
76.026340
 20
203.713389
 30
0.0
 10
76.145540
 20
203.576962
 30
0.0
 10
76.229600
 20
203.401952
 30
0.0
  0
SPLINE
  5
17e
100
AcDbEntity
  8
0
 62
7
100
AcDbSpline
 70
8
 71
3
 72
8
 73
4
 74
0
 40
0
 40
0
 40
0
 40
0
 40
1
 40
1
 40
1
 40
1
 10
76.229600
 20
203.401952
 30
0.0
 10
76.315038
 20
203.228319
 30
0.0
 10
76.357757
 20
203.025747
 30
0.0
 10
76.357757
 20
202.794235
 30
0.0
  0
LWPOLYLINE
  5
17f
100
AcDbEntity
  8
0
 62
7
100
AcDbPolyline
 90
6
 70
1
 10
71.919782
 20
204.673194
 30
0.0
 10
72.529566
 20
204.673194
 30
0.0
 10
72.529566
 20
202.124511
 30
0.0
 10
73.833881
 20
202.124511
 30
0.0
 10
73.833881
 20
201.587075
 30
0.0
 10
71.919782
 20
201.587075
 30
0.0
  0
SPLINE
  5
180
100
AcDbEntity
  8
0
 62
7
100
AcDbSpline
 70
8
 71
3
 72
8
 73
4
 74
0
 40
0
 40
0
 40
0
 40
0
 40
1
 40
1
 40
1
 40
1
 10
74.788862
 20
202.548257
 30
0.0
 10
74.788862
 20
202.187210
 30
0.0
 10
74.999702
 20
202.006686
 30
0.0
 10
75.421382
 20
202.006686
 30
0.0
  0
SPLINE
  5
181
100
AcDbEntity
  8
0
 62
7
100
AcDbSpline
 70
8
 71
3
 72
8
 73
4
 74
0
 40
0
 40
0
 40
0
 40
0
 40
1
 40
1
 40
1
 40
1
 10
75.421382
 20
202.006686
 30
0.0
 10
75.698367
 20
202.006686
 30
0.0
 10
75.978108
 20
202.090058
 30
0.0
 10
76.260606
 20
202.256802
 30
0.0
  0
LWPOLYLINE
  5
182
100
AcDbEntity
  8
0
 62
7
100
AcDbPolyline
 90
3
 70
0
 10
76.357757
 20
202.794235
 30
0.0
 10
76.357757
 20
202.548257
 30
0.0
 10
74.788862
 20
202.548257
 30
0.0
  0
SPLINE
  5
183
100
AcDbEntity
  8
0
 62
7
100
AcDbSpline
 70
8
 71
3
 72
8
 73
4
 74
0
 40
0
 40
0
 40
0
 40
0
 40
1
 40
1
 40
1
 40
1
 10
76.260606
 20
201.700761
 30
0.0
 10
75.979486
 20
201.585007
 30
0.0
 10
75.690098
 20
201.527131
 30
0.0
 10
75.392440
 20
201.527131
 30
0.0
  0
LWPOLYLINE
  5
184
100
AcDbEntity
  8
0
 62
7
100
AcDbPolyline
 90
2
 70
0
 10
76.260606
 20
202.256802
 30
0.0
 10
76.260606
 20
201.700761
 30
0.0
  0
SPLINE
  5
185
100
AcDbEntity
  8
0
 62
7
100
AcDbSpline
 70
8
 71
3
 72
8
 73
4
 74
0
 40
0
 40
0
 40
0
 40
0
 40
1
 40
1
 40
1
 40
1
 10
75.747977
 20
203.003009
 30
0.0
 10
75.747977
 20
203.162862
 30
0.0
 10
75.708702
 20
203.283441
 30
0.0
 10
75.630153
 20
203.364744
 30
0.0
  0
SPLINE
  5
186
100
AcDbEntity
  8
0
 62
7
100
AcDbSpline
 70
8
 71
3
 72
8
 73
4
 74
0
 40
0
 40
0
 40
0
 40
0
 40
1
 40
1
 40
1
 40
1
 10
75.630153
 20
203.364744
 30
0.0
 10
75.551605
 20
203.447426
 30
0.0
 10
75.439295
 20
203.488767
 30
0.0
 10
75.293221
 20
203.488767
 30
0.0
  0
SPLINE
  5
187
100
AcDbEntity
  8
0
 62
7
100
AcDbSpline
 70
8
 71
3
 72
8
 73
4
 74
0
 40
0
 40
0
 40
0
 40
0
 40
1
 40
1
 40
1
 40
1
 10
75.293221
 20
203.488767
 30
0.0
 10
75.144394
 20
203.488767
 30
0.0
 10
75.027950
 20
203.446737
 30
0.0
 10
74.943890
 20
203.362677
 30
0.0
  0
SPLINE
  5
188
100
AcDbEntity
  8
0
 62
7
100
AcDbSpline
 70
8
 71
3
 72
8
 73
4
 74
0
 40
0
 40
0
 40
0
 40
0
 40
1
 40
1
 40
1
 40
1
 10
74.943890
 20
203.362677
 30
0.0
 10
74.859830
 20
203.278617
 30
0.0
 10
74.810221
 20
203.158728
 30
0.0
 10
74.795064
 20
203.003009
 30
0.0
  0
LWPOLYLINE
  5
189
100
AcDbEntity
  8
0
 62
7
100
AcDbPolyline
 90
1
 70
1
 10
75.392440
 20
201.527131
 30
0.0
  0
SPLINE
  5
18a
100
AcDbEntity
  8
0
 62
7
100
AcDbSpline
 70
8
 71
3
 72
8
 73
4
 74
0
 40
0
 40
0
 40
0
 40
0
 40
1
 40
1
 40
1
 40
1
 10
77.941124
 20
201.527131
 30
0.0
 10
77.542870
 20
201.527131
 30
0.0
 10
77.239702
 20
201.629794
 30
0.0
 10
77.031620
 20
201.835120
 30
0.0
  0
SPLINE
  5
18b
100
AcDbEntity
  8
0
 62
7
100
AcDbSpline
 70
8
 71
3
 72
8
 73
4
 74
0
 40
0
 40
0
 40
0
 40
0
 40
1
 40
1
 40
1
 40
1
 10
77.031620
 20
201.835120
 30
0.0
 10
76.824913
 20
202.041827
 30
0.0
 10
76.721559
 20
202.340172
 30
0.0
 10
76.721559
 20
202.730156
 30
0.0
  0
SPLINE
  5
18c
100
AcDbEntity
  8
0
 62
7
100
AcDbSpline
 70
8
 71
3
 72
8
 73
4
 74
0
 40
0
 40
0
 40
0
 40
0
 40
1
 40
1
 40
1
 40
1
 10
76.721559
 20
202.730156
 30
0.0
 10
76.721559
 20
202.976826
 30
0.0
 10
76.764279
 20
203.191801
 30
0.0
 10
76.849717
 20
203.375081
 30
0.0
  0
SPLINE
  5
18d
100
AcDbEntity
  8
0
 62
7
100
AcDbSpline
 70
8
 71
3
 72
8
 73
4
 74
0
 40
0
 40
0
 40
0
 40
0
 40
1
 40
1
 40
1
 40
1
 10
76.849717
 20
203.375081
 30
0.0
 10
76.935157
 20
203.559736
 30
0.0
 10
77.062626
 20
203.703052
 30
0.0
 10
77.232124
 20
203.805029
 30
0.0
  0
SPLINE
  5
18e
100
AcDbEntity
  8
0
 62
7
100
AcDbSpline
 70
8
 71
3
 72
8
 73
4
 74
0
 40
0
 40
0
 40
0
 40
0
 40
1
 40
1
 40
1
 40
1
 10
77.232124
 20
203.805029
 30
0.0
 10
77.403001
 20
203.907003
 30
0.0
 10
77.616596
 20
203.957990
 30
0.0
 10
77.872910
 20
203.957990
 30
0.0
  0
SPLINE
  5
18f
100
AcDbEntity
  8
0
 62
7
100
AcDbSpline
 70
8
 71
3
 72
8
 73
4
 74
0
 40
0
 40
0
 40
0
 40
0
 40
1
 40
1
 40
1
 40
1
 10
77.872910
 20
203.957990
 30
0.0
 10
78.083752
 20
203.957990
 30
0.0
 10
78.266343
 20
203.909070
 30
0.0
 10
78.420683
 20
203.811231
 30
0.0
  0
SPLINE
  5
190
100
AcDbEntity
  8
0
 62
7
100
AcDbSpline
 70
8
 71
3
 72
8
 73
4
 74
0
 40
0
 40
0
 40
0
 40
0
 40
1
 40
1
 40
1
 40
1
 10
78.420683
 20
203.811231
 30
0.0
 10
78.575023
 20
203.713389
 30
0.0
 10
78.694223
 20
203.576962
 30
0.0
 10
78.778283
 20
203.401952
 30
0.0
  0
SPLINE
  5
191
100
AcDbEntity
  8
0
 62
7
100
AcDbSpline
 70
8
 71
3
 72
8
 73
4
 74
0
 40
0
 40
0
 40
0
 40
0
 40
1
 40
1
 40
1
 40
1
 10
78.778283
 20
203.401952
 30
0.0
 10
78.863722
 20
203.228319
 30
0.0
 10
78.906441
 20
203.025747
 30
0.0
 10
78.906441
 20
202.794235
 30
0.0
  0
LWPOLYLINE
  5
192
100
AcDbEntity
  8
0
 62
7
100
AcDbPolyline
 90
2
 70
0
 10
74.795064
 20
203.003009
 30
0.0
 10
75.747977
 20
203.003009
 30
0.0
  0
SPLINE
  5
193
100
AcDbEntity
  8
0
 62
7
100
AcDbSpline
 70
8
 71
3
 72
8
 73
4
 74
0
 40
0
 40
0
 40
0
 40
0
 40
1
 40
1
 40
1
 40
1
 10
77.337545
 20
202.548257
 30
0.0
 10
77.337545
 20
202.187210
 30
0.0
 10
77.548385
 20
202.006686
 30
0.0
 10
77.970066
 20
202.006686
 30
0.0
  0
SPLINE
  5
194
100
AcDbEntity
  8
0
 62
7
100
AcDbSpline
 70
8
 71
3
 72
8
 73
4
 74
0
 40
0
 40
0
 40
0
 40
0
 40
1
 40
1
 40
1
 40
1
 10
77.970066
 20
202.006686
 30
0.0
 10
78.247050
 20
202.006686
 30
0.0
 10
78.526792
 20
202.090058
 30
0.0
 10
78.809289
 20
202.256802
 30
0.0
  0
LWPOLYLINE
  5
195
100
AcDbEntity
  8
0
 62
7
100
AcDbPolyline
 90
3
 70
0
 10
78.906441
 20
202.794235
 30
0.0
 10
78.906441
 20
202.548257
 30
0.0
 10
77.337545
 20
202.548257
 30
0.0
  0
SPLINE
  5
196
100
AcDbEntity
  8
0
 62
7
100
AcDbSpline
 70
8
 71
3
 72
8
 73
4
 74
0
 40
0
 40
0
 40
0
 40
0
 40
1
 40
1
 40
1
 40
1
 10
78.809289
 20
201.700761
 30
0.0
 10
78.528170
 20
201.585007
 30
0.0
 10
78.238781
 20
201.527131
 30
0.0
 10
77.941124
 20
201.527131
 30
0.0
  0
LWPOLYLINE
  5
197
100
AcDbEntity
  8
0
 62
7
100
AcDbPolyline
 90
2
 70
0
 10
78.809289
 20
202.256802
 30
0.0
 10
78.809289
 20
201.700761
 30
0.0
  0
SPLINE
  5
198
100
AcDbEntity
  8
0
 62
7
100
AcDbSpline
 70
8
 71
3
 72
8
 73
4
 74
0
 40
0
 40
0
 40
0
 40
0
 40
1
 40
1
 40
1
 40
1
 10
78.296660
 20
203.003009
 30
0.0
 10
78.296660
 20
203.162862
 30
0.0
 10
78.257386
 20
203.283441
 30
0.0
 10
78.178836
 20
203.364744
 30
0.0
  0
SPLINE
  5
199
100
AcDbEntity
  8
0
 62
7
100
AcDbSpline
 70
8
 71
3
 72
8
 73
4
 74
0
 40
0
 40
0
 40
0
 40
0
 40
1
 40
1
 40
1
 40
1
 10
78.178836
 20
203.364744
 30
0.0
 10
78.100289
 20
203.447426
 30
0.0
 10
77.987978
 20
203.488767
 30
0.0
 10
77.841905
 20
203.488767
 30
0.0
  0
SPLINE
  5
19a
100
AcDbEntity
  8
0
 62
7
100
AcDbSpline
 70
8
 71
3
 72
8
 73
4
 74
0
 40
0
 40
0
 40
0
 40
0
 40
1
 40
1
 40
1
 40
1
 10
77.841905
 20
203.488767
 30
0.0
 10
77.693077
 20
203.488767
 30
0.0
 10
77.576633
 20
203.446737
 30
0.0
 10
77.492573
 20
203.362677
 30
0.0
  0
SPLINE
  5
19b
100
AcDbEntity
  8
0
 62
7
100
AcDbSpline
 70
8
 71
3
 72
8
 73
4
 74
0
 40
0
 40
0
 40
0
 40
0
 40
1
 40
1
 40
1
 40
1
 10
77.492573
 20
203.362677
 30
0.0
 10
77.408513
 20
203.278617
 30
0.0
 10
77.358903
 20
203.158728
 30
0.0
 10
77.343743
 20
203.003009
 30
0.0
  0
LWPOLYLINE
  5
19c
100
AcDbEntity
  8
0
 62
7
100
AcDbPolyline
 90
1
 70
1
 10
77.941124
 20
201.527131
 30
0.0
  0
SPLINE
  5
19d
100
AcDbEntity
  8
0
 62
7
100
AcDbSpline
 70
8
 71
3
 72
8
 73
4
 74
0
 40
0
 40
0
 40
0
 40
0
 40
1
 40
1
 40
1
 40
1
 10
6.391910
 20
196.118769
 30
0.0
 10
6.309227
 20
196.118769
 30
0.0
 10
6.228612
 20
196.122908
 30
0.0
 10
6.150064
 20
196.131186
 30
0.0
  0
SPLINE
  5
19e
100
AcDbEntity
  8
0
 62
7
100
AcDbSpline
 70
8
 71
3
 72
8
 73
4
 74
0
 40
0
 40
0
 40
0
 40
0
 40
1
 40
1
 40
1
 40
1
 10
6.150064
 20
196.131186
 30
0.0
 10
6.071515
 20
196.139465
 30
0.0
 10
5.992967
 20
196.153244
 30
0.0
 10
5.914419
 20
196.172525
 30
0.0
  0
SPLINE
  5
19f
100
AcDbEntity
  8
0
 62
7
100
AcDbSpline
 70
8
 71
3
 72
8
 73
4
 74
0
 40
0
 40
0
 40
0
 40
0
 40
1
 40
1
 40
1
 40
1
 10
5.914419
 20
196.172525
 30
0.0
 10
5.754566
 20
196.209734
 30
0.0
 10
5.605738
 20
196.264166
 30
0.0
 10
5.467934
 20
196.335822
 30
0.0
  0
LWPOLYLINE
  5
1a0
100
AcDbEntity
  8
0
 62
7
100
AcDbPolyline
 90
2
 70
0
 10
77.343743
 20
203.003009
 30
0.0
 10
78.296660
 20
203.003009
 30
0.0
  0
SPLINE
  5
1a1
100
AcDbEntity
  8
0
 62
7
100
AcDbSpline
 70
8
 71
3
 72
8
 73
4
 74
0
 40
0
 40
0
 40
0
 40
0
 40
1
 40
1
 40
1
 40
1
 10
5.467934
 20
196.966275
 30
0.0
 10
5.631921
 20
196.850522
 30
0.0
 10
5.789706
 20
196.764395
 30
0.0
 10
5.941291
 20
196.707894
 30
0.0
  0
SPLINE
  5
1a2
100
AcDbEntity
  8
0
 62
7
100
AcDbSpline
 70
8
 71
3
 72
8
 73
4
 74
0
 40
0
 40
0
 40
0
 40
0
 40
1
 40
1
 40
1
 40
1
 10
5.941291
 20
196.707894
 30
0.0
 10
6.095631
 20
196.651395
 30
0.0
 10
6.244459
 20
196.623146
 30
0.0
 10
6.387775
 20
196.623146
 30
0.0
  0
SPLINE
  5
1a3
100
AcDbEntity
  8
0
 62
7
100
AcDbSpline
 70
8
 71
3
 72
8
 73
4
 74
0
 40
0
 40
0
 40
0
 40
0
 40
1
 40
1
 40
1
 40
1
 10
6.387775
 20
196.623146
 30
0.0
 10
6.539360
 20
196.623146
 30
0.0
 10
6.657182
 20
196.657597
 30
0.0
 10
6.741242
 20
196.726499
 30
0.0
  0
SPLINE
  5
1a4
100
AcDbEntity
  8
0
 62
7
100
AcDbSpline
 70
8
 71
3
 72
8
 73
4
 74
0
 40
0
 40
0
 40
0
 40
0
 40
1
 40
1
 40
1
 40
1
 10
6.741242
 20
196.726499
 30
0.0
 10
6.823925
 20
196.794023
 30
0.0
 10
6.865266
 20
196.889108
 30
0.0
 10
6.865266
 20
197.011752
 30
0.0
  0
SPLINE
  5
1a5
100
AcDbEntity
  8
0
 62
7
100
AcDbSpline
 70
8
 71
3
 72
8
 73
4
 74
0
 40
0
 40
0
 40
0
 40
0
 40
1
 40
1
 40
1
 40
1
 10
6.865266
 20
197.011752
 30
0.0
 10
6.865266
 20
197.106838
 30
0.0
 10
6.837705
 20
197.188142
 30
0.0
 10
6.782584
 20
197.255666
 30
0.0
  0
SPLINE
  5
1a6
100
AcDbEntity
  8
0
 62
7
100
AcDbSpline
 70
8
 71
3
 72
8
 73
4
 74
0
 40
0
 40
0
 40
0
 40
0
 40
1
 40
1
 40
1
 40
1
 10
6.782584
 20
197.255666
 30
0.0
 10
6.753645
 20
197.291494
 30
0.0
 10
6.718505
 20
197.322500
 30
0.0
 10
6.677163
 20
197.348683
 30
0.0
  0
SPLINE
  5
1a7
100
AcDbEntity
  8
0
 62
7
100
AcDbSpline
 70
8
 71
3
 72
8
 73
4
 74
0
 40
0
 40
0
 40
0
 40
0
 40
1
 40
1
 40
1
 40
1
 10
6.677163
 20
197.348683
 30
0.0
 10
6.637200
 20
197.376245
 30
0.0
 10
6.592414
 20
197.399671
 30
0.0
 10
6.542805
 20
197.418964
 30
0.0
  0
LWPOLYLINE
  5
1a8
100
AcDbEntity
  8
0
 62
7
100
AcDbPolyline
 90
2
 70
0
 10
5.467934
 20
196.335822
 30
0.0
 10
5.467934
 20
196.966275
 30
0.0
  0
SPLINE
  5
1a9
100
AcDbEntity
  8
0
 62
7
100
AcDbSpline
 70
8
 71
3
 72
8
 73
4
 74
0
 40
0
 40
0
 40
0
 40
0
 40
1
 40
1
 40
1
 40
1
 10
6.243081
 20
197.532650
 30
0.0
 10
6.084607
 20
197.593285
 30
0.0
 10
5.954382
 20
197.653920
 30
0.0
 10
5.852407
 20
197.714553
 30
0.0
  0
SPLINE
  5
1aa
100
AcDbEntity
  8
0
 62
7
100
AcDbSpline
 70
8
 71
3
 72
8
 73
4
 74
0
 40
0
 40
0
 40
0
 40
0
 40
1
 40
1
 40
1
 40
1
 10
5.852407
 20
197.714553
 30
0.0
 10
5.750432
 20
197.776564
 30
0.0
 10
5.672573
 20
197.839265
 30
0.0
 10
5.618829
 20
197.902654
 30
0.0
  0
SPLINE
  5
1ab
100
AcDbEntity
  8
0
 62
7
100
AcDbSpline
 70
8
 71
3
 72
8
 73
4
 74
0
 40
0
 40
0
 40
0
 40
0
 40
1
 40
1
 40
1
 40
1
 10
5.618829
 20
197.902654
 30
0.0
 10
5.509964
 20
198.028055
 30
0.0
 10
5.455532
 20
198.200998
 30
0.0
 10
5.455532
 20
198.421485
 30
0.0
  0
SPLINE
  5
1ac
100
AcDbEntity
  8
0
 62
7
100
AcDbSpline
 70
8
 71
3
 72
8
 73
4
 74
0
 40
0
 40
0
 40
0
 40
0
 40
1
 40
1
 40
1
 40
1
 10
5.455532
 20
198.421485
 30
0.0
 10
5.455532
 20
198.702606
 30
0.0
 10
5.545105
 20
198.922404
 30
0.0
 10
5.724250
 20
199.080876
 30
0.0
  0
SPLINE
  5
1ad
100
AcDbEntity
  8
0
 62
7
100
AcDbSpline
 70
8
 71
3
 72
8
 73
4
 74
0
 40
0
 40
0
 40
0
 40
0
 40
1
 40
1
 40
1
 40
1
 10
5.724250
 20
199.080876
 30
0.0
 10
5.904773
 20
199.240729
 30
0.0
 10
6.150064
 20
199.320656
 30
0.0
 10
6.460122
 20
199.320656
 30
0.0
  0
SPLINE
  5
1ae
100
AcDbEntity
  8
0
 62
7
100
AcDbSpline
 70
8
 71
3
 72
8
 73
4
 74
0
 40
0
 40
0
 40
0
 40
0
 40
1
 40
1
 40
1
 40
1
 10
6.460122
 20
199.320656
 30
0.0
 10
6.613085
 20
199.320656
 30
0.0
 10
6.755712
 20
199.305498
 30
0.0
 10
6.888004
 20
199.275183
 30
0.0
  0
SPLINE
  5
1af
100
AcDbEntity
  8
0
 62
7
100
AcDbSpline
 70
8
 71
3
 72
8
 73
4
 74
0
 40
0
 40
0
 40
0
 40
0
 40
1
 40
1
 40
1
 40
1
 10
6.888004
 20
199.275183
 30
0.0
 10
7.021673
 20
199.244865
 30
0.0
 10
7.162233
 20
199.195944
 30
0.0
 10
7.309683
 20
199.128420
 30
0.0
  0
LWPOLYLINE
  5
1b0
100
AcDbEntity
  8
0
 62
7
100
AcDbPolyline
 90
2
 70
0
 10
6.542805
 20
197.418964
 30
0.0
 10
6.243081
 20
197.532650
 30
0.0
  0
SPLINE
  5
1b1
100
AcDbEntity
  8
0
 62
7
100
AcDbSpline
 70
8
 71
3
 72
8
 73
4
 74
0
 40
0
 40
0
 40
0
 40
0
 40
1
 40
1
 40
1
 40
1
 10
7.309683
 20
198.533107
 30
0.0
 10
7.045100
 20
198.721898
 30
0.0
 10
6.777760
 20
198.816293
 30
0.0
 10
6.507665
 20
198.816293
 30
0.0
  0
SPLINE
  5
1b2
100
AcDbEntity
  8
0
 62
7
100
AcDbSpline
 70
8
 71
3
 72
8
 73
4
 74
0
 40
0
 40
0
 40
0
 40
0
 40
1
 40
1
 40
1
 40
1
 10
6.507665
 20
198.816293
 30
0.0
 10
6.358836
 20
198.816293
 30
0.0
 10
6.246526
 20
198.786665
 30
0.0
 10
6.170734
 20
198.727410
 30
0.0
  0
SPLINE
  5
1b3
100
AcDbEntity
  8
0
 62
7
100
AcDbSpline
 70
8
 71
3
 72
8
 73
4
 74
0
 40
0
 40
0
 40
0
 40
0
 40
1
 40
1
 40
1
 40
1
 10
6.170734
 20
198.727410
 30
0.0
 10
6.092186
 20
198.668155
 30
0.0
 10
6.052912
 20
198.584095
 30
0.0
 10
6.052912
 20
198.475230
 30
0.0
  0
SPLINE
  5
1b4
100
AcDbEntity
  8
0
 62
7
100
AcDbSpline
 70
8
 71
3
 72
8
 73
4
 74
0
 40
0
 40
0
 40
0
 40
0
 40
1
 40
1
 40
1
 40
1
 10
6.052912
 20
198.475230
 30
0.0
 10
6.052912
 20
198.388414
 30
0.0
 10
6.081851
 20
198.317445
 30
0.0
 10
6.139728
 20
198.262322
 30
0.0
  0
SPLINE
  5
1b5
100
AcDbEntity
  8
0
 62
7
100
AcDbSpline
 70
8
 71
3
 72
8
 73
4
 74
0
 40
0
 40
0
 40
0
 40
0
 40
1
 40
1
 40
1
 40
1
 10
6.139728
 20
198.262322
 30
0.0
 10
6.167289
 20
198.234760
 30
0.0
 10
6.207941
 20
198.206511
 30
0.0
 10
6.261685
 20
198.177574
 30
0.0
  0
SPLINE
  5
1b6
100
AcDbEntity
  8
0
 62
7
100
AcDbSpline
 70
8
 71
3
 72
8
 73
4
 74
0
 40
0
 40
0
 40
0
 40
0
 40
1
 40
1
 40
1
 40
1
 10
6.261685
 20
198.177574
 30
0.0
 10
6.316806
 20
198.148634
 30
0.0
 10
6.395355
 20
198.114872
 30
0.0
 10
6.497329
 20
198.076288
 30
0.0
  0
LWPOLYLINE
  5
1b7
100
AcDbEntity
  8
0
 62
7
100
AcDbPolyline
 90
2
 70
0
 10
7.309683
 20
199.128420
 30
0.0
 10
7.309683
 20
198.533107
 30
0.0
  0
SPLINE
  5
1b8
100
AcDbEntity
  8
0
 62
7
100
AcDbSpline
 70
8
 71
3
 72
8
 73
4
 74
0
 40
0
 40
0
 40
0
 40
0
 40
1
 40
1
 40
1
 40
1
 10
6.759846
 20
197.977069
 30
0.0
 10
7.009271
 20
197.884740
 30
0.0
 10
7.191861
 20
197.764851
 30
0.0
 10
7.307616
 20
197.617401
 30
0.0
  0
SPLINE
  5
1b9
100
AcDbEntity
  8
0
 62
7
100
AcDbSpline
 70
8
 71
3
 72
8
 73
4
 74
0
 40
0
 40
0
 40
0
 40
0
 40
1
 40
1
 40
1
 40
1
 10
7.307616
 20
197.617401
 30
0.0
 10
7.424750
 20
197.467196
 30
0.0
 10
7.483316
 20
197.273580
 30
0.0
 10
7.483316
 20
197.036556
 30
0.0
  0
SPLINE
  5
1ba
100
AcDbEntity
  8
0
 62
7
100
AcDbSpline
 70
8
 71
3
 72
8
 73
4
 74
0
 40
0
 40
0
 40
0
 40
0
 40
1
 40
1
 40
1
 40
1
 10
7.483316
 20
197.036556
 30
0.0
 10
7.483316
 20
196.732010
 30
0.0
 10
7.390988
 20
196.503256
 30
0.0
 10
7.206330
 20
196.350293
 30
0.0
  0
SPLINE
  5
1bb
100
AcDbEntity
  8
0
 62
7
100
AcDbSpline
 70
8
 71
3
 72
8
 73
4
 74
0
 40
0
 40
0
 40
0
 40
0
 40
1
 40
1
 40
1
 40
1
 10
7.206330
 20
196.350293
 30
0.0
 10
7.021673
 20
196.195953
 30
0.0
 10
6.750200
 20
196.118783
 30
0.0
 10
6.391910
 20
196.118783
 30
0.0
  0
LWPOLYLINE
  5
1bc
100
AcDbEntity
  8
0
 62
7
100
AcDbPolyline
 90
2
 70
0
 10
6.497329
 20
198.076288
 30
0.0
 10
6.759846
 20
197.977069
 30
0.0
  0
SPLINE
  5
1bd
100
AcDbEntity
  8
0
 62
7
100
AcDbSpline
 70
8
 71
3
 72
8
 73
4
 74
0
 40
0
 40
0
 40
0
 40
0
 40
1
 40
1
 40
1
 40
1
 10
8.738021
 20
196.118769
 30
0.0
 10
8.498242
 20
196.118769
 30
0.0
 10
8.303939
 20
196.186982
 30
0.0
 10
8.155111
 20
196.323408
 30
0.0
  0
SPLINE
  5
1be
100
AcDbEntity
  8
0
 62
7
100
AcDbSpline
 70
8
 71
3
 72
8
 73
4
 74
0
 40
0
 40
0
 40
0
 40
0
 40
1
 40
1
 40
1
 40
1
 10
8.155111
 20
196.323408
 30
0.0
 10
8.007660
 20
196.461213
 30
0.0
 10
7.933935
 20
196.658961
 30
0.0
 10
7.933935
 20
196.916654
 30
0.0
  0
SPLINE
  5
1bf
100
AcDbEntity
  8
0
 62
7
100
AcDbSpline
 70
8
 71
3
 72
8
 73
4
 74
0
 40
0
 40
0
 40
0
 40
0
 40
1
 40
1
 40
1
 40
1
 10
7.933935
 20
196.916654
 30
0.0
 10
7.933935
 20
197.079263
 30
0.0
 10
7.962874
 20
197.211555
 30
0.0
 10
8.020752
 20
197.313529
 30
0.0
  0
SPLINE
  5
1c0
100
AcDbEntity
  8
0
 62
7
100
AcDbSpline
 70
8
 71
3
 72
8
 73
4
 74
0
 40
0
 40
0
 40
0
 40
0
 40
1
 40
1
 40
1
 40
1
 10
8.020752
 20
197.313529
 30
0.0
 10
8.080007
 20
197.416881
 30
0.0
 10
8.159934
 20
197.496808
 30
0.0
 10
8.260531
 20
197.553309
 30
0.0
  0
SPLINE
  5
1c1
100
AcDbEntity
  8
0
 62
7
100
AcDbSpline
 70
8
 71
3
 72
8
 73
4
 74
0
 40
0
 40
0
 40
0
 40
0
 40
1
 40
1
 40
1
 40
1
 10
8.260531
 20
197.553309
 30
0.0
 10
8.362505
 20
197.609807
 30
0.0
 10
8.477571
 20
197.648392
 30
0.0
 10
8.605729
 20
197.669062
 30
0.0
  0
SPLINE
  5
1c2
100
AcDbEntity
  8
0
 62
7
100
AcDbSpline
 70
8
 71
3
 72
8
 73
4
 74
0
 40
0
 40
0
 40
0
 40
0
 40
1
 40
1
 40
1
 40
1
 10
8.605729
 20
197.669062
 30
0.0
 10
8.733887
 20
197.691099
 30
0.0
 10
8.868246
 20
197.702117
 30
0.0
 10
9.008805
 20
197.702117
 30
0.0
  0
LWPOLYLINE
  5
1c3
100
AcDbEntity
  8
0
 62
7
100
AcDbPolyline
 90
1
 70
1
 10
6.391910
 20
196.118783
 30
0.0
  0
SPLINE
  5
1c4
100
AcDbEntity
  8
0
 62
7
100
AcDbSpline
 70
8
 71
3
 72
8
 73
4
 74
0
 40
0
 40
0
 40
0
 40
0
 40
1
 40
1
 40
1
 40
1
 10
9.428419
 20
197.803404
 30
0.0
 10
9.428419
 20
197.886085
 30
0.0
 10
9.406370
 20
197.948786
 30
0.0
 10
9.362273
 20
197.991505
 30
0.0
  0
SPLINE
  5
1c5
100
AcDbEntity
  8
0
 62
7
100
AcDbSpline
 70
8
 71
3
 72
8
 73
4
 74
0
 40
0
 40
0
 40
0
 40
0
 40
1
 40
1
 40
1
 40
1
 10
9.362273
 20
197.991505
 30
0.0
 10
9.319553
 20
198.034224
 30
0.0
 10
9.263743
 20
198.063163
 30
0.0
 10
9.194841
 20
198.078323
 30
0.0
  0
SPLINE
  5
1c6
100
AcDbEntity
  8
0
 62
7
100
AcDbSpline
 70
8
 71
3
 72
8
 73
4
 74
0
 40
0
 40
0
 40
0
 40
0
 40
1
 40
1
 40
1
 40
1
 10
9.194841
 20
198.078323
 30
0.0
 10
9.127317
 20
198.093469
 30
0.0
 10
9.057726
 20
198.101042
 30
0.0
 10
8.986068
 20
198.101042
 30
0.0
  0
SPLINE
  5
1c7
100
AcDbEntity
  8
0
 62
7
100
AcDbSpline
 70
8
 71
3
 72
8
 73
4
 74
0
 40
0
 40
0
 40
0
 40
0
 40
1
 40
1
 40
1
 40
1
 10
8.986068
 20
198.101042
 30
0.0
 10
8.839996
 20
198.101042
 30
0.0
 10
8.699436
 20
198.081061
 30
0.0
 10
8.564388
 20
198.041098
 30
0.0
  0
SPLINE
  5
1c8
100
AcDbEntity
  8
0
 62
7
100
AcDbSpline
 70
8
 71
3
 72
8
 73
4
 74
0
 40
0
 40
0
 40
0
 40
0
 40
1
 40
1
 40
1
 40
1
 10
8.564388
 20
198.041098
 30
0.0
 10
8.430718
 20
198.001136
 30
0.0
 10
8.297048
 20
197.944636
 30
0.0
 10
8.163379
 20
197.871599
 30
0.0
  0
LWPOLYLINE
  5
1c9
100
AcDbEntity
  8
0
 62
7
100
AcDbPolyline
 90
3
 70
0
 10
9.008805
 20
197.702117
 30
0.0
 10
9.428419
 20
197.702117
 30
0.0
 10
9.428419
 20
197.803404
 30
0.0
  0
SPLINE
  5
1ca
100
AcDbEntity
  8
0
 62
7
100
AcDbSpline
 70
8
 71
3
 72
8
 73
4
 74
0
 40
0
 40
0
 40
0
 40
0
 40
1
 40
1
 40
1
 40
1
 10
8.163379
 20
198.388362
 30
0.0
 10
8.306695
 20
198.446241
 30
0.0
 10
8.448633
 20
198.487584
 30
0.0
 10
8.589193
 20
198.512389
 30
0.0
  0
SPLINE
  5
1cb
100
AcDbEntity
  8
0
 62
7
100
AcDbSpline
 70
8
 71
3
 72
8
 73
4
 74
0
 40
0
 40
0
 40
0
 40
0
 40
1
 40
1
 40
1
 40
1
 10
8.589193
 20
198.512389
 30
0.0
 10
8.731131
 20
198.538569
 30
0.0
 10
8.874447
 20
198.551660
 30
0.0
 10
9.019141
 20
198.551660
 30
0.0
  0
SPLINE
  5
1cc
100
AcDbEntity
  8
0
 62
7
100
AcDbSpline
 70
8
 71
3
 72
8
 73
4
 74
0
 40
0
 40
0
 40
0
 40
0
 40
1
 40
1
 40
1
 40
1
 10
9.019141
 20
198.551660
 30
0.0
 10
9.272700
 20
198.551660
 30
0.0
 10
9.473205
 20
198.515143
 30
0.0
 10
9.620655
 20
198.442108
 30
0.0
  0
SPLINE
  5
1cd
100
AcDbEntity
  8
0
 62
7
100
AcDbSpline
 70
8
 71
3
 72
8
 73
4
 74
0
 40
0
 40
0
 40
0
 40
0
 40
1
 40
1
 40
1
 40
1
 10
9.620655
 20
198.442108
 30
0.0
 10
9.768105
 20
198.370449
 30
0.0
 10
9.872836
 20
198.258828
 30
0.0
 10
9.934848
 20
198.107244
 30
0.0
  0
SPLINE
  5
1ce
100
AcDbEntity
  8
0
 62
7
100
AcDbSpline
 70
8
 71
3
 72
8
 73
4
 74
0
 40
0
 40
0
 40
0
 40
0
 40
1
 40
1
 40
1
 40
1
 10
9.934848
 20
198.107244
 30
0.0
 10
9.998238
 20
197.957038
 30
0.0
 10
10.029933
 20
197.765490
 30
0.0
 10
10.029933
 20
197.532601
 30
0.0
  0
SPLINE
  5
1cf
100
AcDbEntity
  8
0
 62
7
100
AcDbSpline
 70
8
 71
3
 72
8
 73
4
 74
0
 40
0
 40
0
 40
0
 40
0
 40
1
 40
1
 40
1
 40
1
 10
10.029933
 20
197.532601
 30
0.0
 10
10.029933
 20
197.478858
 30
0.0
 10
10.028554
 20
197.409957
 30
0.0
 10
10.025798
 20
197.325897
 30
0.0
  0
SPLINE
  5
1d0
100
AcDbEntity
  8
0
 62
7
100
AcDbSpline
 70
8
 71
3
 72
8
 73
4
 74
0
 40
0
 40
0
 40
0
 40
0
 40
1
 40
1
 40
1
 40
1
 10
10.025798
 20
197.325897
 30
0.0
 10
10.024411
 20
197.241835
 30
0.0
 10
10.023717
 20
197.157774
 30
0.0
 10
10.023717
 20
197.073714
 30
0.0
  0
SPLINE
  5
1d1
100
AcDbEntity
  8
0
 62
7
100
AcDbSpline
 70
8
 71
3
 72
8
 73
4
 74
0
 40
0
 40
0
 40
0
 40
0
 40
1
 40
1
 40
1
 40
1
 10
10.023717
 20
197.073714
 30
0.0
 10
10.023717
 20
196.999301
 30
0.0
 10
10.023023
 20
196.929022
 30
0.0
 10
10.021635
 20
196.862876
 30
0.0
  0
SPLINE
  5
1d2
100
AcDbEntity
  8
0
 62
7
100
AcDbSpline
 70
8
 71
3
 72
8
 73
4
 74
0
 40
0
 40
0
 40
0
 40
0
 40
1
 40
1
 40
1
 40
1
 10
10.021635
 20
196.862876
 30
0.0
 10
10.020248
 20
196.796730
 30
0.0
 10
10.019554
 20
196.740920
 30
0.0
 10
10.019554
 20
196.695444
 30
0.0
  0
SPLINE
  5
1d3
100
AcDbEntity
  8
0
 62
7
100
AcDbSpline
 70
8
 71
3
 72
8
 73
4
 74
0
 40
0
 40
0
 40
0
 40
0
 40
1
 40
1
 40
1
 40
1
 10
10.019554
 20
196.695444
 30
0.0
 10
10.019554
 20
196.655479
 30
0.0
 10
10.021621
 20
196.603113
 30
0.0
 10
10.025756
 20
196.538345
 30
0.0
  0
SPLINE
  5
1d4
100
AcDbEntity
  8
0
 62
7
100
AcDbSpline
 70
8
 71
3
 72
8
 73
4
 74
0
 40
0
 40
0
 40
0
 40
0
 40
1
 40
1
 40
1
 40
1
 10
10.025756
 20
196.538345
 30
0.0
 10
10.029890
 20
196.474956
 30
0.0
 10
10.039536
 20
196.410188
 30
0.0
 10
10.054694
 20
196.344042
 30
0.0
  0
SPLINE
  5
1d5
100
AcDbEntity
  8
0
 62
7
100
AcDbSpline
 70
8
 71
3
 72
8
 73
4
 74
0
 40
0
 40
0
 40
0
 40
0
 40
1
 40
1
 40
1
 40
1
 10
10.054694
 20
196.344042
 30
0.0
 10
10.069852
 20
196.277896
 30
0.0
 10
10.093279
 20
196.222775
 30
0.0
 10
10.124974
 20
196.178677
 30
0.0
  0
LWPOLYLINE
  5
1d6
100
AcDbEntity
  8
0
 62
7
100
AcDbPolyline
 90
2
 70
0
 10
8.163379
 20
197.871599
 30
0.0
 10
8.163379
 20
198.388362
 30
0.0
  0
SPLINE
  5
1d7
100
AcDbEntity
  8
0
 62
7
100
AcDbSpline
 70
8
 71
3
 72
8
 73
4
 74
0
 40
0
 40
0
 40
0
 40
0
 40
1
 40
1
 40
1
 40
1
 10
9.525570
 20
196.178677
 30
0.0
 10
9.499387
 20
196.222775
 30
0.0
 10
9.480095
 20
196.264116
 30
0.0
 10
9.467693
 20
196.302700
 30
0.0
  0
SPLINE
  5
1d8
100
AcDbEntity
  8
0
 62
7
100
AcDbSpline
 70
8
 71
3
 72
8
 73
4
 74
0
 40
0
 40
0
 40
0
 40
0
 40
1
 40
1
 40
1
 40
1
 10
9.467693
 20
196.302700
 30
0.0
 10
9.455291
 20
196.341287
 30
0.0
 10
9.446334
 20
196.386073
 30
0.0
 10
9.440822
 20
196.437059
 30
0.0
  0
SPLINE
  5
1d9
100
AcDbEntity
  8
0
 62
7
100
AcDbSpline
 70
8
 71
3
 72
8
 73
4
 74
0
 40
0
 40
0
 40
0
 40
0
 40
1
 40
1
 40
1
 40
1
 10
9.440822
 20
196.437059
 30
0.0
 10
9.359517
 20
196.328194
 30
0.0
 10
9.257542
 20
196.247580
 30
0.0
 10
9.134897
 20
196.195216
 30
0.0
  0
SPLINE
  5
1da
100
AcDbEntity
  8
0
 62
7
100
AcDbSpline
 70
8
 71
3
 72
8
 73
4
 74
0
 40
0
 40
0
 40
0
 40
0
 40
1
 40
1
 40
1
 40
1
 10
9.134897
 20
196.195216
 30
0.0
 10
9.013629
 20
196.144227
 30
0.0
 10
8.881338
 20
196.118733
 30
0.0
 10
8.738022
 20
196.118733
 30
0.0
  0
LWPOLYLINE
  5
1db
100
AcDbEntity
  8
0
 62
7
100
AcDbPolyline
 90
2
 70
0
 10
10.124974
 20
196.178677
 30
0.0
 10
9.525570
 20
196.178677
 30
0.0
  0
SPLINE
  5
1dc
100
AcDbEntity
  8
0
 62
7
100
AcDbSpline
 70
8
 71
3
 72
8
 73
4
 74
0
 40
0
 40
0
 40
0
 40
0
 40
1
 40
1
 40
1
 40
1
 10
8.936458
 20
196.538380
 30
0.0
 10
9.063238
 20
196.538380
 30
0.0
 10
9.161768
 20
196.572832
 30
0.0
 10
9.232048
 20
196.641734
 30
0.0
  0
SPLINE
  5
1dd
100
AcDbEntity
  8
0
 62
7
100
AcDbSpline
 70
8
 71
3
 72
8
 73
4
 74
0
 40
0
 40
0
 40
0
 40
0
 40
1
 40
1
 40
1
 40
1
 10
9.232048
 20
196.641734
 30
0.0
 10
9.303706
 20
196.712014
 30
0.0
 10
9.354004
 20
196.799520
 30
0.0
 10
9.382943
 20
196.904250
 30
0.0
  0
SPLINE
  5
1de
100
AcDbEntity
  8
0
 62
7
100
AcDbSpline
 70
8
 71
3
 72
8
 73
4
 74
0
 40
0
 40
0
 40
0
 40
0
 40
1
 40
1
 40
1
 40
1
 10
9.382943
 20
196.904250
 30
0.0
 10
9.413260
 20
197.010359
 30
0.0
 10
9.428419
 20
197.117157
 30
0.0
 10
9.428419
 20
197.224647
 30
0.0
  0
LWPOLYLINE
  5
1df
100
AcDbEntity
  8
0
 62
7
100
AcDbPolyline
 90
1
 70
1
 10
8.738022
 20
196.118733
 30
0.0
  0
SPLINE
  5
1e0
100
AcDbEntity
  8
0
 62
7
100
AcDbSpline
 70
8
 71
3
 72
8
 73
4
 74
0
 40
0
 40
0
 40
0
 40
0
 40
1
 40
1
 40
1
 40
1
 10
9.186573
 20
197.265985
 30
0.0
 10
9.091488
 20
197.265985
 30
0.0
 10
8.997092
 20
197.259094
 30
0.0
 10
8.903386
 20
197.245312
 30
0.0
  0
SPLINE
  5
1e1
100
AcDbEntity
  8
0
 62
7
100
AcDbSpline
 70
8
 71
3
 72
8
 73
4
 74
0
 40
0
 40
0
 40
0
 40
0
 40
1
 40
1
 40
1
 40
1
 10
8.903386
 20
197.245312
 30
0.0
 10
8.809679
 20
197.232918
 30
0.0
 10
8.731820
 20
197.200534
 30
0.0
 10
8.669808
 20
197.148161
 30
0.0
  0
SPLINE
  5
1e2
100
AcDbEntity
  8
0
 62
7
100
AcDbSpline
 70
8
 71
3
 72
8
 73
4
 74
0
 40
0
 40
0
 40
0
 40
0
 40
1
 40
1
 40
1
 40
1
 10
8.669808
 20
197.148161
 30
0.0
 10
8.609174
 20
197.097173
 30
0.0
 10
8.578857
 20
197.012424
 30
0.0
 10
8.578857
 20
196.893914
 30
0.0
  0
SPLINE
  5
1e3
100
AcDbEntity
  8
0
 62
7
100
AcDbSpline
 70
8
 71
3
 72
8
 73
4
 74
0
 40
0
 40
0
 40
0
 40
0
 40
1
 40
1
 40
1
 40
1
 10
8.578857
 20
196.893914
 30
0.0
 10
8.578857
 20
196.780914
 30
0.0
 10
8.609863
 20
196.693409
 30
0.0
 10
8.671875
 20
196.631397
 30
0.0
  0
SPLINE
  5
1e4
100
AcDbEntity
  8
0
 62
7
100
AcDbSpline
 70
8
 71
3
 72
8
 73
4
 74
0
 40
0
 40
0
 40
0
 40
0
 40
1
 40
1
 40
1
 40
1
 10
8.671875
 20
196.631397
 30
0.0
 10
8.735265
 20
196.569384
 30
0.0
 10
8.823459
 20
196.538377
 30
0.0
 10
8.936458
 20
196.538377
 30
0.0
  0
LWPOLYLINE
  5
1e5
100
AcDbEntity
  8
0
 62
7
100
AcDbPolyline
 90
3
 70
0
 10
9.428419
 20
197.224647
 30
0.0
 10
9.428419
 20
197.265985
 30
0.0
 10
9.186573
 20
197.265985
 30
0.0
  0
LWPOLYLINE
  5
1e6
100
AcDbEntity
  8
0
 62
7
100
AcDbPolyline
 90
1
 70
1
 10
8.936458
 20
196.538377
 30
0.0
  0
SPLINE
  5
1e7
100
AcDbEntity
  8
0
 62
7
100
AcDbSpline
 70
8
 71
3
 72
8
 73
4
 74
0
 40
0
 40
0
 40
0
 40
0
 40
1
 40
1
 40
1
 40
1
 10
13.835387
 20
196.118769
 30
0.0
 10
13.595609
 20
196.118769
 30
0.0
 10
13.401305
 20
196.186982
 30
0.0
 10
13.252477
 20
196.323408
 30
0.0
  0
SPLINE
  5
1e8
100
AcDbEntity
  8
0
 62
7
100
AcDbSpline
 70
8
 71
3
 72
8
 73
4
 74
0
 40
0
 40
0
 40
0
 40
0
 40
1
 40
1
 40
1
 40
1
 10
13.252477
 20
196.323408
 30
0.0
 10
13.105027
 20
196.461213
 30
0.0
 10
13.031302
 20
196.658961
 30
0.0
 10
13.031302
 20
196.916654
 30
0.0
  0
SPLINE
  5
1e9
100
AcDbEntity
  8
0
 62
7
100
AcDbSpline
 70
8
 71
3
 72
8
 73
4
 74
0
 40
0
 40
0
 40
0
 40
0
 40
1
 40
1
 40
1
 40
1
 10
13.031302
 20
196.916654
 30
0.0
 10
13.031302
 20
197.079263
 30
0.0
 10
13.060240
 20
197.211555
 30
0.0
 10
13.118118
 20
197.313529
 30
0.0
  0
SPLINE
  5
1ea
100
AcDbEntity
  8
0
 62
7
100
AcDbSpline
 70
8
 71
3
 72
8
 73
4
 74
0
 40
0
 40
0
 40
0
 40
0
 40
1
 40
1
 40
1
 40
1
 10
13.118118
 20
197.313529
 30
0.0
 10
13.177374
 20
197.416881
 30
0.0
 10
13.257300
 20
197.496808
 30
0.0
 10
13.357897
 20
197.553309
 30
0.0
  0
SPLINE
  5
1eb
100
AcDbEntity
  8
0
 62
7
100
AcDbSpline
 70
8
 71
3
 72
8
 73
4
 74
0
 40
0
 40
0
 40
0
 40
0
 40
1
 40
1
 40
1
 40
1
 10
13.357897
 20
197.553309
 30
0.0
 10
13.459872
 20
197.609807
 30
0.0
 10
13.574938
 20
197.648392
 30
0.0
 10
13.703096
 20
197.669062
 30
0.0
  0
SPLINE
  5
1ec
100
AcDbEntity
  8
0
 62
7
100
AcDbSpline
 70
8
 71
3
 72
8
 73
4
 74
0
 40
0
 40
0
 40
0
 40
0
 40
1
 40
1
 40
1
 40
1
 10
13.703096
 20
197.669062
 30
0.0
 10
13.831253
 20
197.691099
 30
0.0
 10
13.965612
 20
197.702117
 30
0.0
 10
14.106172
 20
197.702117
 30
0.0
  0
LWPOLYLINE
  5
1ed
100
AcDbEntity
  8
0
 62
7
100
AcDbPolyline
 90
7
 70
1
 10
10.451612
 20
198.493818
 30
0.0
 10
11.065529
 20
198.493818
 30
0.0
 10
11.559556
 20
196.687210
 30
0.0
 10
12.055650
 20
198.493818
 30
0.0
 10
12.669567
 20
198.493818
 30
0.0
 10
11.933694
 20
196.178713
 30
0.0
 10
11.187485
 20
196.178713
 30
0.0
  0
SPLINE
  5
1ee
100
AcDbEntity
  8
0
 62
7
100
AcDbSpline
 70
8
 71
3
 72
8
 73
4
 74
0
 40
0
 40
0
 40
0
 40
0
 40
1
 40
1
 40
1
 40
1
 10
14.525785
 20
197.803404
 30
0.0
 10
14.525785
 20
197.886085
 30
0.0
 10
14.503736
 20
197.948786
 30
0.0
 10
14.459639
 20
197.991505
 30
0.0
  0
SPLINE
  5
1ef
100
AcDbEntity
  8
0
 62
7
100
AcDbSpline
 70
8
 71
3
 72
8
 73
4
 74
0
 40
0
 40
0
 40
0
 40
0
 40
1
 40
1
 40
1
 40
1
 10
14.459639
 20
197.991505
 30
0.0
 10
14.416920
 20
198.034224
 30
0.0
 10
14.361109
 20
198.063163
 30
0.0
 10
14.292207
 20
198.078323
 30
0.0
  0
SPLINE
  5
1f0
100
AcDbEntity
  8
0
 62
7
100
AcDbSpline
 70
8
 71
3
 72
8
 73
4
 74
0
 40
0
 40
0
 40
0
 40
0
 40
1
 40
1
 40
1
 40
1
 10
14.292207
 20
198.078323
 30
0.0
 10
14.224684
 20
198.093469
 30
0.0
 10
14.155093
 20
198.101042
 30
0.0
 10
14.083434
 20
198.101042
 30
0.0
  0
SPLINE
  5
1f1
100
AcDbEntity
  8
0
 62
7
100
AcDbSpline
 70
8
 71
3
 72
8
 73
4
 74
0
 40
0
 40
0
 40
0
 40
0
 40
1
 40
1
 40
1
 40
1
 10
14.083434
 20
198.101042
 30
0.0
 10
13.937362
 20
198.101042
 30
0.0
 10
13.796802
 20
198.081061
 30
0.0
 10
13.661755
 20
198.041098
 30
0.0
  0
SPLINE
  5
1f2
100
AcDbEntity
  8
0
 62
7
100
AcDbSpline
 70
8
 71
3
 72
8
 73
4
 74
0
 40
0
 40
0
 40
0
 40
0
 40
1
 40
1
 40
1
 40
1
 10
13.661755
 20
198.041098
 30
0.0
 10
13.528085
 20
198.001136
 30
0.0
 10
13.394415
 20
197.944636
 30
0.0
 10
13.260745
 20
197.871599
 30
0.0
  0
LWPOLYLINE
  5
1f3
100
AcDbEntity
  8
0
 62
7
100
AcDbPolyline
 90
3
 70
0
 10
14.106172
 20
197.702117
 30
0.0
 10
14.525785
 20
197.702117
 30
0.0
 10
14.525785
 20
197.803404
 30
0.0
  0
SPLINE
  5
1f4
100
AcDbEntity
  8
0
 62
7
100
AcDbSpline
 70
8
 71
3
 72
8
 73
4
 74
0
 40
0
 40
0
 40
0
 40
0
 40
1
 40
1
 40
1
 40
1
 10
13.260745
 20
198.388362
 30
0.0
 10
13.404061
 20
198.446241
 30
0.0
 10
13.545999
 20
198.487584
 30
0.0
 10
13.686559
 20
198.512389
 30
0.0
  0
SPLINE
  5
1f5
100
AcDbEntity
  8
0
 62
7
100
AcDbSpline
 70
8
 71
3
 72
8
 73
4
 74
0
 40
0
 40
0
 40
0
 40
0
 40
1
 40
1
 40
1
 40
1
 10
13.686559
 20
198.512389
 30
0.0
 10
13.828497
 20
198.538569
 30
0.0
 10
13.971813
 20
198.551660
 30
0.0
 10
14.116507
 20
198.551660
 30
0.0
  0
SPLINE
  5
1f6
100
AcDbEntity
  8
0
 62
7
100
AcDbSpline
 70
8
 71
3
 72
8
 73
4
 74
0
 40
0
 40
0
 40
0
 40
0
 40
1
 40
1
 40
1
 40
1
 10
14.116507
 20
198.551660
 30
0.0
 10
14.370067
 20
198.551660
 30
0.0
 10
14.570571
 20
198.515143
 30
0.0
 10
14.718021
 20
198.442108
 30
0.0
  0
SPLINE
  5
1f7
100
AcDbEntity
  8
0
 62
7
100
AcDbSpline
 70
8
 71
3
 72
8
 73
4
 74
0
 40
0
 40
0
 40
0
 40
0
 40
1
 40
1
 40
1
 40
1
 10
14.718021
 20
198.442108
 30
0.0
 10
14.865472
 20
198.370449
 30
0.0
 10
14.970203
 20
198.258828
 30
0.0
 10
15.032214
 20
198.107244
 30
0.0
  0
SPLINE
  5
1f8
100
AcDbEntity
  8
0
 62
7
100
AcDbSpline
 70
8
 71
3
 72
8
 73
4
 74
0
 40
0
 40
0
 40
0
 40
0
 40
1
 40
1
 40
1
 40
1
 10
15.032214
 20
198.107244
 30
0.0
 10
15.095604
 20
197.957038
 30
0.0
 10
15.127299
 20
197.765490
 30
0.0
 10
15.127299
 20
197.532601
 30
0.0
  0
SPLINE
  5
1f9
100
AcDbEntity
  8
0
 62
7
100
AcDbSpline
 70
8
 71
3
 72
8
 73
4
 74
0
 40
0
 40
0
 40
0
 40
0
 40
1
 40
1
 40
1
 40
1
 10
15.127299
 20
197.532601
 30
0.0
 10
15.127299
 20
197.478858
 30
0.0
 10
15.125921
 20
197.409957
 30
0.0
 10
15.123164
 20
197.325897
 30
0.0
  0
SPLINE
  5
1fa
100
AcDbEntity
  8
0
 62
7
100
AcDbSpline
 70
8
 71
3
 72
8
 73
4
 74
0
 40
0
 40
0
 40
0
 40
0
 40
1
 40
1
 40
1
 40
1
 10
15.123164
 20
197.325897
 30
0.0
 10
15.121777
 20
197.241835
 30
0.0
 10
15.121083
 20
197.157774
 30
0.0
 10
15.121083
 20
197.073714
 30
0.0
  0
SPLINE
  5
1fb
100
AcDbEntity
  8
0
 62
7
100
AcDbSpline
 70
8
 71
3
 72
8
 73
4
 74
0
 40
0
 40
0
 40
0
 40
0
 40
1
 40
1
 40
1
 40
1
 10
15.121083
 20
197.073714
 30
0.0
 10
15.121083
 20
196.999301
 30
0.0
 10
15.120389
 20
196.929022
 30
0.0
 10
15.119002
 20
196.862876
 30
0.0
  0
SPLINE
  5
1fc
100
AcDbEntity
  8
0
 62
7
100
AcDbSpline
 70
8
 71
3
 72
8
 73
4
 74
0
 40
0
 40
0
 40
0
 40
0
 40
1
 40
1
 40
1
 40
1
 10
15.119002
 20
196.862876
 30
0.0
 10
15.117614
 20
196.796730
 30
0.0
 10
15.116920
 20
196.740920
 30
0.0
 10
15.116920
 20
196.695444
 30
0.0
  0
SPLINE
  5
1fd
100
AcDbEntity
  8
0
 62
7
100
AcDbSpline
 70
8
 71
3
 72
8
 73
4
 74
0
 40
0
 40
0
 40
0
 40
0
 40
1
 40
1
 40
1
 40
1
 10
15.116920
 20
196.695444
 30
0.0
 10
15.116920
 20
196.655479
 30
0.0
 10
15.118987
 20
196.603113
 30
0.0
 10
15.123122
 20
196.538345
 30
0.0
  0
SPLINE
  5
1fe
100
AcDbEntity
  8
0
 62
7
100
AcDbSpline
 70
8
 71
3
 72
8
 73
4
 74
0
 40
0
 40
0
 40
0
 40
0
 40
1
 40
1
 40
1
 40
1
 10
15.123122
 20
196.538345
 30
0.0
 10
15.127257
 20
196.474956
 30
0.0
 10
15.136903
 20
196.410188
 30
0.0
 10
15.152060
 20
196.344042
 30
0.0
  0
SPLINE
  5
1ff
100
AcDbEntity
  8
0
 62
7
100
AcDbSpline
 70
8
 71
3
 72
8
 73
4
 74
0
 40
0
 40
0
 40
0
 40
0
 40
1
 40
1
 40
1
 40
1
 10
15.152060
 20
196.344042
 30
0.0
 10
15.167218
 20
196.277896
 30
0.0
 10
15.190645
 20
196.222775
 30
0.0
 10
15.222340
 20
196.178677
 30
0.0
  0
LWPOLYLINE
  5
200
100
AcDbEntity
  8
0
 62
7
100
AcDbPolyline
 90
2
 70
0
 10
13.260745
 20
197.871599
 30
0.0
 10
13.260745
 20
198.388362
 30
0.0
  0
SPLINE
  5
201
100
AcDbEntity
  8
0
 62
7
100
AcDbSpline
 70
8
 71
3
 72
8
 73
4
 74
0
 40
0
 40
0
 40
0
 40
0
 40
1
 40
1
 40
1
 40
1
 10
14.622893
 20
196.178677
 30
0.0
 10
14.596711
 20
196.222775
 30
0.0
 10
14.577418
 20
196.264116
 30
0.0
 10
14.565016
 20
196.302700
 30
0.0
  0
SPLINE
  5
202
100
AcDbEntity
  8
0
 62
7
100
AcDbSpline
 70
8
 71
3
 72
8
 73
4
 74
0
 40
0
 40
0
 40
0
 40
0
 40
1
 40
1
 40
1
 40
1
 10
14.565016
 20
196.302700
 30
0.0
 10
14.552614
 20
196.341287
 30
0.0
 10
14.543657
 20
196.386073
 30
0.0
 10
14.538144
 20
196.437059
 30
0.0
  0
SPLINE
  5
203
100
AcDbEntity
  8
0
 62
7
100
AcDbSpline
 70
8
 71
3
 72
8
 73
4
 74
0
 40
0
 40
0
 40
0
 40
0
 40
1
 40
1
 40
1
 40
1
 10
14.538144
 20
196.437059
 30
0.0
 10
14.456840
 20
196.328194
 30
0.0
 10
14.354865
 20
196.247580
 30
0.0
 10
14.232220
 20
196.195216
 30
0.0
  0
SPLINE
  5
204
100
AcDbEntity
  8
0
 62
7
100
AcDbSpline
 70
8
 71
3
 72
8
 73
4
 74
0
 40
0
 40
0
 40
0
 40
0
 40
1
 40
1
 40
1
 40
1
 10
14.232220
 20
196.195216
 30
0.0
 10
14.110952
 20
196.144227
 30
0.0
 10
13.978660
 20
196.118733
 30
0.0
 10
13.835344
 20
196.118733
 30
0.0
  0
LWPOLYLINE
  5
205
100
AcDbEntity
  8
0
 62
7
100
AcDbPolyline
 90
2
 70
0
 10
15.222340
 20
196.178677
 30
0.0
 10
14.622893
 20
196.178677
 30
0.0
  0
SPLINE
  5
206
100
AcDbEntity
  8
0
 62
7
100
AcDbSpline
 70
8
 71
3
 72
8
 73
4
 74
0
 40
0
 40
0
 40
0
 40
0
 40
1
 40
1
 40
1
 40
1
 10
14.033825
 20
196.538380
 30
0.0
 10
14.160605
 20
196.538380
 30
0.0
 10
14.259135
 20
196.572832
 30
0.0
 10
14.329415
 20
196.641734
 30
0.0
  0
SPLINE
  5
207
100
AcDbEntity
  8
0
 62
7
100
AcDbSpline
 70
8
 71
3
 72
8
 73
4
 74
0
 40
0
 40
0
 40
0
 40
0
 40
1
 40
1
 40
1
 40
1
 10
14.329415
 20
196.641734
 30
0.0
 10
14.401072
 20
196.712014
 30
0.0
 10
14.451371
 20
196.799520
 30
0.0
 10
14.480310
 20
196.904250
 30
0.0
  0
SPLINE
  5
208
100
AcDbEntity
  8
0
 62
7
100
AcDbSpline
 70
8
 71
3
 72
8
 73
4
 74
0
 40
0
 40
0
 40
0
 40
0
 40
1
 40
1
 40
1
 40
1
 10
14.480310
 20
196.904250
 30
0.0
 10
14.510626
 20
197.010359
 30
0.0
 10
14.525785
 20
197.117157
 30
0.0
 10
14.525785
 20
197.224647
 30
0.0
  0
LWPOLYLINE
  5
209
100
AcDbEntity
  8
0
 62
7
100
AcDbPolyline
 90
1
 70
1
 10
13.835344
 20
196.118733
 30
0.0
  0
SPLINE
  5
20a
100
AcDbEntity
  8
0
 62
7
100
AcDbSpline
 70
8
 71
3
 72
8
 73
4
 74
0
 40
0
 40
0
 40
0
 40
0
 40
1
 40
1
 40
1
 40
1
 10
14.283939
 20
197.265985
 30
0.0
 10
14.188854
 20
197.265985
 30
0.0
 10
14.094459
 20
197.259094
 30
0.0
 10
14.000752
 20
197.245312
 30
0.0
  0
SPLINE
  5
20b
100
AcDbEntity
  8
0
 62
7
100
AcDbSpline
 70
8
 71
3
 72
8
 73
4
 74
0
 40
0
 40
0
 40
0
 40
0
 40
1
 40
1
 40
1
 40
1
 10
14.000752
 20
197.245312
 30
0.0
 10
13.907046
 20
197.232918
 30
0.0
 10
13.829186
 20
197.200534
 30
0.0
 10
13.767175
 20
197.148161
 30
0.0
  0
SPLINE
  5
20c
100
AcDbEntity
  8
0
 62
7
100
AcDbSpline
 70
8
 71
3
 72
8
 73
4
 74
0
 40
0
 40
0
 40
0
 40
0
 40
1
 40
1
 40
1
 40
1
 10
13.767175
 20
197.148161
 30
0.0
 10
13.706541
 20
197.097173
 30
0.0
 10
13.676224
 20
197.012424
 30
0.0
 10
13.676224
 20
196.893914
 30
0.0
  0
SPLINE
  5
20d
100
AcDbEntity
  8
0
 62
7
100
AcDbSpline
 70
8
 71
3
 72
8
 73
4
 74
0
 40
0
 40
0
 40
0
 40
0
 40
1
 40
1
 40
1
 40
1
 10
13.676224
 20
196.893914
 30
0.0
 10
13.676224
 20
196.780914
 30
0.0
 10
13.707230
 20
196.693409
 30
0.0
 10
13.769242
 20
196.631397
 30
0.0
  0
SPLINE
  5
20e
100
AcDbEntity
  8
0
 62
7
100
AcDbSpline
 70
8
 71
3
 72
8
 73
4
 74
0
 40
0
 40
0
 40
0
 40
0
 40
1
 40
1
 40
1
 40
1
 10
13.769242
 20
196.631397
 30
0.0
 10
13.832631
 20
196.569384
 30
0.0
 10
13.920826
 20
196.538377
 30
0.0
 10
14.033825
 20
196.538377
 30
0.0
  0
LWPOLYLINE
  5
20f
100
AcDbEntity
  8
0
 62
7
100
AcDbPolyline
 90
3
 70
0
 10
14.525785
 20
197.224647
 30
0.0
 10
14.525785
 20
197.265985
 30
0.0
 10
14.283939
 20
197.265985
 30
0.0
  0
SPLINE
  5
210
100
AcDbEntity
  8
0
 62
7
100
AcDbSpline
 70
8
 71
3
 72
8
 73
4
 74
0
 40
0
 40
0
 40
0
 40
0
 40
1
 40
1
 40
1
 40
1
 10
16.588710
 20
195.302282
 30
0.0
 10
16.326882
 20
195.302282
 30
0.0
 10
16.073323
 20
195.340177
 30
0.0
 10
15.828032
 20
195.415968
 30
0.0
  0
LWPOLYLINE
  5
211
100
AcDbEntity
  8
0
 62
7
100
AcDbPolyline
 90
1
 70
1
 10
14.033825
 20
196.538377
 30
0.0
  0
SPLINE
  5
212
100
AcDbEntity
  8
0
 62
7
100
AcDbSpline
 70
8
 71
3
 72
8
 73
4
 74
0
 40
0
 40
0
 40
0
 40
0
 40
1
 40
1
 40
1
 40
1
 10
15.828032
 20
195.972006
 30
0.0
 10
16.051274
 20
195.847983
 30
0.0
 10
16.284163
 20
195.785972
 30
0.0
 10
16.526698
 20
195.785972
 30
0.0
  0
SPLINE
  5
213
100
AcDbEntity
  8
0
 62
7
100
AcDbSpline
 70
8
 71
3
 72
8
 73
4
 74
0
 40
0
 40
0
 40
0
 40
0
 40
1
 40
1
 40
1
 40
1
 10
16.526698
 20
195.785972
 30
0.0
 10
16.707221
 20
195.785972
 30
0.0
 10
16.838134
 20
195.825935
 30
0.0
 10
16.919439
 20
195.905860
 30
0.0
  0
SPLINE
  5
214
100
AcDbEntity
  8
0
 62
7
100
AcDbSpline
 70
8
 71
3
 72
8
 73
4
 74
0
 40
0
 40
0
 40
0
 40
0
 40
1
 40
1
 40
1
 40
1
 10
16.919439
 20
195.905860
 30
0.0
 10
17.002121
 20
195.985788
 30
0.0
 10
17.043462
 20
196.111879
 30
0.0
 10
17.043462
 20
196.284133
 30
0.0
  0
LWPOLYLINE
  5
215
100
AcDbEntity
  8
0
 62
7
100
AcDbPolyline
 90
2
 70
0
 10
15.828032
 20
195.415968
 30
0.0
 10
15.828032
 20
195.972006
 30
0.0
  0
SPLINE
  5
216
100
AcDbEntity
  8
0
 62
7
100
AcDbSpline
 70
8
 71
3
 72
8
 73
4
 74
0
 40
0
 40
0
 40
0
 40
0
 40
1
 40
1
 40
1
 40
1
 10
17.043462
 20
196.534246
 30
0.0
 10
16.924951
 20
196.316516
 30
0.0
 10
16.729270
 20
196.207651
 30
0.0
 10
16.456418
 20
196.207651
 30
0.0
  0
SPLINE
  5
217
100
AcDbEntity
  8
0
 62
7
100
AcDbSpline
 70
8
 71
3
 72
8
 73
4
 74
0
 40
0
 40
0
 40
0
 40
0
 40
1
 40
1
 40
1
 40
1
 10
16.456418
 20
196.207651
 30
0.0
 10
16.293809
 20
196.207651
 30
0.0
 10
16.156694
 20
196.240724
 30
0.0
 10
16.045073
 20
196.306870
 30
0.0
  0
SPLINE
  5
218
100
AcDbEntity
  8
0
 62
7
100
AcDbSpline
 70
8
 71
3
 72
8
 73
4
 74
0
 40
0
 40
0
 40
0
 40
0
 40
1
 40
1
 40
1
 40
1
 10
16.045073
 20
196.306870
 30
0.0
 10
15.934830
 20
196.374394
 30
0.0
 10
15.845946
 20
196.463278
 30
0.0
 10
15.778423
 20
196.573521
 30
0.0
  0
SPLINE
  5
219
100
AcDbEntity
  8
0
 62
7
100
AcDbSpline
 70
8
 71
3
 72
8
 73
4
 74
0
 40
0
 40
0
 40
0
 40
0
 40
1
 40
1
 40
1
 40
1
 10
15.778423
 20
196.573521
 30
0.0
 10
15.710899
 20
196.685142
 30
0.0
 10
15.661978
 20
196.808477
 30
0.0
 10
15.631661
 20
196.943525
 30
0.0
  0
SPLINE
  5
21a
100
AcDbEntity
  8
0
 62
7
100
AcDbSpline
 70
8
 71
3
 72
8
 73
4
 74
0
 40
0
 40
0
 40
0
 40
0
 40
1
 40
1
 40
1
 40
1
 10
15.631661
 20
196.943525
 30
0.0
 10
15.601345
 20
197.078573
 30
0.0
 10
15.586186
 20
197.214999
 30
0.0
 10
15.586186
 20
197.352804
 30
0.0
  0
SPLINE
  5
21b
100
AcDbEntity
  8
0
 62
7
100
AcDbSpline
 70
8
 71
3
 72
8
 73
4
 74
0
 40
0
 40
0
 40
0
 40
0
 40
1
 40
1
 40
1
 40
1
 10
15.586186
 20
197.352804
 30
0.0
 10
15.586186
 20
197.487852
 30
0.0
 10
15.600656
 20
197.624966
 30
0.0
 10
15.629594
 20
197.764146
 30
0.0
  0
SPLINE
  5
21c
100
AcDbEntity
  8
0
 62
7
100
AcDbSpline
 70
8
 71
3
 72
8
 73
4
 74
0
 40
0
 40
0
 40
0
 40
0
 40
1
 40
1
 40
1
 40
1
 10
15.629594
 20
197.764146
 30
0.0
 10
15.658533
 20
197.904707
 30
0.0
 10
15.705386
 20
198.034932
 30
0.0
 10
15.770154
 20
198.154820
 30
0.0
  0
SPLINE
  5
21d
100
AcDbEntity
  8
0
 62
7
100
AcDbSpline
 70
8
 71
3
 72
8
 73
4
 74
0
 40
0
 40
0
 40
0
 40
0
 40
1
 40
1
 40
1
 40
1
 10
15.770154
 20
198.154820
 30
0.0
 10
15.836300
 20
198.274710
 30
0.0
 10
15.923117
 20
198.371174
 30
0.0
 10
16.030604
 20
198.444211
 30
0.0
  0
SPLINE
  5
21e
100
AcDbEntity
  8
0
 62
7
100
AcDbSpline
 70
8
 71
3
 72
8
 73
4
 74
0
 40
0
 40
0
 40
0
 40
0
 40
1
 40
1
 40
1
 40
1
 10
16.030604
 20
198.444211
 30
0.0
 10
16.139469
 20
198.517245
 30
0.0
 10
16.273139
 20
198.553762
 30
0.0
 10
16.431613
 20
198.553762
 30
0.0
  0
SPLINE
  5
21f
100
AcDbEntity
  8
0
 62
7
100
AcDbSpline
 70
8
 71
3
 72
8
 73
4
 74
0
 40
0
 40
0
 40
0
 40
0
 40
1
 40
1
 40
1
 40
1
 10
16.431613
 20
198.553762
 30
0.0
 10
16.715489
 20
198.553762
 30
0.0
 10
16.919439
 20
198.435251
 30
0.0
 10
17.043462
 20
198.198229
 30
0.0
  0
LWPOLYLINE
  5
220
100
AcDbEntity
  8
0
 62
7
100
AcDbPolyline
 90
2
 70
0
 10
17.043462
 20
196.284133
 30
0.0
 10
17.043462
 20
196.534246
 30
0.0
  0
SPLINE
  5
221
100
AcDbEntity
  8
0
 62
7
100
AcDbSpline
 70
8
 71
3
 72
8
 73
4
 74
0
 40
0
 40
0
 40
0
 40
0
 40
1
 40
1
 40
1
 40
1
 10
17.649111
 20
196.352346
 30
0.0
 10
17.649111
 20
195.981654
 30
0.0
 10
17.565739
 20
195.714315
 30
0.0
 10
17.398997
 20
195.550327
 30
0.0
  0
SPLINE
  5
222
100
AcDbEntity
  8
0
 62
7
100
AcDbSpline
 70
8
 71
3
 72
8
 73
4
 74
0
 40
0
 40
0
 40
0
 40
0
 40
1
 40
1
 40
1
 40
1
 10
17.398997
 20
195.550327
 30
0.0
 10
17.232254
 20
195.384963
 30
0.0
 10
16.962158
 20
195.302282
 30
0.0
 10
16.588710
 20
195.302282
 30
0.0
  0
LWPOLYLINE
  5
223
100
AcDbEntity
  8
0
 62
7
100
AcDbPolyline
 90
4
 70
0
 10
17.043462
 20
198.198229
 30
0.0
 10
17.103407
 20
198.493818
 30
0.0
 10
17.649111
 20
198.493818
 30
0.0
 10
17.649111
 20
196.352346
 30
0.0
  0
SPLINE
  5
224
100
AcDbEntity
  8
0
 62
7
100
AcDbSpline
 70
8
 71
3
 72
8
 73
4
 74
0
 40
0
 40
0
 40
0
 40
0
 40
1
 40
1
 40
1
 40
1
 10
16.615581
 20
196.687210
 30
0.0
 10
16.740982
 20
196.687210
 30
0.0
 10
16.843646
 20
196.751289
 30
0.0
 10
16.923573
 20
196.879446
 30
0.0
  0
SPLINE
  5
225
100
AcDbEntity
  8
0
 62
7
100
AcDbSpline
 70
8
 71
3
 72
8
 73
4
 74
0
 40
0
 40
0
 40
0
 40
0
 40
1
 40
1
 40
1
 40
1
 10
16.923573
 20
196.879446
 30
0.0
 10
17.003499
 20
197.007603
 30
0.0
 10
17.043462
 20
197.172279
 30
0.0
 10
17.043462
 20
197.373473
 30
0.0
  0
SPLINE
  5
226
100
AcDbEntity
  8
0
 62
7
100
AcDbSpline
 70
8
 71
3
 72
8
 73
4
 74
0
 40
0
 40
0
 40
0
 40
0
 40
1
 40
1
 40
1
 40
1
 10
17.043462
 20
197.373473
 30
0.0
 10
17.043462
 20
197.574667
 30
0.0
 10
17.003499
 20
197.738653
 30
0.0
 10
16.923573
 20
197.865433
 30
0.0
  0
SPLINE
  5
227
100
AcDbEntity
  8
0
 62
7
100
AcDbSpline
 70
8
 71
3
 72
8
 73
4
 74
0
 40
0
 40
0
 40
0
 40
0
 40
1
 40
1
 40
1
 40
1
 10
16.923573
 20
197.865433
 30
0.0
 10
16.845024
 20
197.993590
 30
0.0
 10
16.743050
 20
198.057668
 30
0.0
 10
16.617648
 20
198.057668
 30
0.0
  0
SPLINE
  5
228
100
AcDbEntity
  8
0
 62
7
100
AcDbSpline
 70
8
 71
3
 72
8
 73
4
 74
0
 40
0
 40
0
 40
0
 40
0
 40
1
 40
1
 40
1
 40
1
 10
16.617648
 20
198.057668
 30
0.0
 10
16.492246
 20
198.057668
 30
0.0
 10
16.389583
 20
197.993590
 30
0.0
 10
16.309656
 20
197.865433
 30
0.0
  0
SPLINE
  5
229
100
AcDbEntity
  8
0
 62
7
100
AcDbSpline
 70
8
 71
3
 72
8
 73
4
 74
0
 40
0
 40
0
 40
0
 40
0
 40
1
 40
1
 40
1
 40
1
 10
16.309656
 20
197.865433
 30
0.0
 10
16.231108
 20
197.738653
 30
0.0
 10
16.191834
 20
197.574667
 30
0.0
 10
16.191834
 20
197.373473
 30
0.0
  0
SPLINE
  5
22a
100
AcDbEntity
  8
0
 62
7
100
AcDbSpline
 70
8
 71
3
 72
8
 73
4
 74
0
 40
0
 40
0
 40
0
 40
0
 40
1
 40
1
 40
1
 40
1
 10
16.191834
 20
197.373473
 30
0.0
 10
16.191834
 20
197.172279
 30
0.0
 10
16.231108
 20
197.007603
 30
0.0
 10
16.309656
 20
196.879446
 30
0.0
  0
SPLINE
  5
22b
100
AcDbEntity
  8
0
 62
7
100
AcDbSpline
 70
8
 71
3
 72
8
 73
4
 74
0
 40
0
 40
0
 40
0
 40
0
 40
1
 40
1
 40
1
 40
1
 10
16.309656
 20
196.879446
 30
0.0
 10
16.388204
 20
196.751289
 30
0.0
 10
16.490179
 20
196.687210
 30
0.0
 10
16.615581
 20
196.687210
 30
0.0
  0
LWPOLYLINE
  5
22c
100
AcDbEntity
  8
0
 62
7
100
AcDbPolyline
 90
1
 70
1
 10
16.588710
 20
195.302282
 30
0.0
  0
SPLINE
  5
22d
100
AcDbEntity
  8
0
 62
7
100
AcDbSpline
 70
8
 71
3
 72
8
 73
4
 74
0
 40
0
 40
0
 40
0
 40
0
 40
1
 40
1
 40
1
 40
1
 10
19.321360
 20
196.118769
 30
0.0
 10
18.923107
 20
196.118769
 30
0.0
 10
18.619939
 20
196.221433
 30
0.0
 10
18.411855
 20
196.426761
 30
0.0
  0
SPLINE
  5
22e
100
AcDbEntity
  8
0
 62
7
100
AcDbSpline
 70
8
 71
3
 72
8
 73
4
 74
0
 40
0
 40
0
 40
0
 40
0
 40
1
 40
1
 40
1
 40
1
 10
18.411855
 20
196.426761
 30
0.0
 10
18.205149
 20
196.633466
 30
0.0
 10
18.101796
 20
196.931811
 30
0.0
 10
18.101796
 20
197.321798
 30
0.0
  0
SPLINE
  5
22f
100
AcDbEntity
  8
0
 62
7
100
AcDbSpline
 70
8
 71
3
 72
8
 73
4
 74
0
 40
0
 40
0
 40
0
 40
0
 40
1
 40
1
 40
1
 40
1
 10
18.101796
 20
197.321798
 30
0.0
 10
18.101796
 20
197.568465
 30
0.0
 10
18.144515
 20
197.783439
 30
0.0
 10
18.229954
 20
197.966719
 30
0.0
  0
SPLINE
  5
230
100
AcDbEntity
  8
0
 62
7
100
AcDbSpline
 70
8
 71
3
 72
8
 73
4
 74
0
 40
0
 40
0
 40
0
 40
0
 40
1
 40
1
 40
1
 40
1
 10
18.229954
 20
197.966719
 30
0.0
 10
18.315392
 20
198.151377
 30
0.0
 10
18.442861
 20
198.294693
 30
0.0
 10
18.612360
 20
198.396667
 30
0.0
  0
SPLINE
  5
231
100
AcDbEntity
  8
0
 62
7
100
AcDbSpline
 70
8
 71
3
 72
8
 73
4
 74
0
 40
0
 40
0
 40
0
 40
0
 40
1
 40
1
 40
1
 40
1
 10
18.612360
 20
198.396667
 30
0.0
 10
18.783236
 20
198.498643
 30
0.0
 10
18.996832
 20
198.549631
 30
0.0
 10
19.253148
 20
198.549631
 30
0.0
  0
SPLINE
  5
232
100
AcDbEntity
  8
0
 62
7
100
AcDbSpline
 70
8
 71
3
 72
8
 73
4
 74
0
 40
0
 40
0
 40
0
 40
0
 40
1
 40
1
 40
1
 40
1
 10
19.253148
 20
198.549631
 30
0.0
 10
19.463988
 20
198.549631
 30
0.0
 10
19.646578
 20
198.500710
 30
0.0
 10
19.800918
 20
198.402869
 30
0.0
  0
SPLINE
  5
233
100
AcDbEntity
  8
0
 62
7
100
AcDbSpline
 70
8
 71
3
 72
8
 73
4
 74
0
 40
0
 40
0
 40
0
 40
0
 40
1
 40
1
 40
1
 40
1
 10
19.800918
 20
198.402869
 30
0.0
 10
19.955258
 20
198.305027
 30
0.0
 10
20.074459
 20
198.168601
 30
0.0
 10
20.158519
 20
197.993590
 30
0.0
  0
SPLINE
  5
234
100
AcDbEntity
  8
0
 62
7
100
AcDbSpline
 70
8
 71
3
 72
8
 73
4
 74
0
 40
0
 40
0
 40
0
 40
0
 40
1
 40
1
 40
1
 40
1
 10
20.158519
 20
197.993590
 30
0.0
 10
20.243958
 20
197.819957
 30
0.0
 10
20.286677
 20
197.617386
 30
0.0
 10
20.286677
 20
197.385877
 30
0.0
  0
LWPOLYLINE
  5
235
100
AcDbEntity
  8
0
 62
7
100
AcDbPolyline
 90
1
 70
1
 10
16.615581
 20
196.687210
 30
0.0
  0
SPLINE
  5
236
100
AcDbEntity
  8
0
 62
7
100
AcDbSpline
 70
8
 71
3
 72
8
 73
4
 74
0
 40
0
 40
0
 40
0
 40
0
 40
1
 40
1
 40
1
 40
1
 10
18.717780
 20
197.139895
 30
0.0
 10
18.717780
 20
196.778850
 30
0.0
 10
18.928620
 20
196.598328
 30
0.0
 10
19.350300
 20
196.598328
 30
0.0
  0
SPLINE
  5
237
100
AcDbEntity
  8
0
 62
7
100
AcDbSpline
 70
8
 71
3
 72
8
 73
4
 74
0
 40
0
 40
0
 40
0
 40
0
 40
1
 40
1
 40
1
 40
1
 10
19.350300
 20
196.598328
 30
0.0
 10
19.627285
 20
196.598328
 30
0.0
 10
19.907027
 20
196.681699
 30
0.0
 10
20.189525
 20
196.848441
 30
0.0
  0
LWPOLYLINE
  5
238
100
AcDbEntity
  8
0
 62
7
100
AcDbPolyline
 90
3
 70
0
 10
20.286677
 20
197.385877
 30
0.0
 10
20.286677
 20
197.139895
 30
0.0
 10
18.717780
 20
197.139895
 30
0.0
  0
SPLINE
  5
239
100
AcDbEntity
  8
0
 62
7
100
AcDbSpline
 70
8
 71
3
 72
8
 73
4
 74
0
 40
0
 40
0
 40
0
 40
0
 40
1
 40
1
 40
1
 40
1
 10
20.189525
 20
196.292402
 30
0.0
 10
19.908405
 20
196.176647
 30
0.0
 10
19.619017
 20
196.118769
 30
0.0
 10
19.321360
 20
196.118769
 30
0.0
  0
LWPOLYLINE
  5
23a
100
AcDbEntity
  8
0
 62
7
100
AcDbPolyline
 90
2
 70
0
 10
20.189525
 20
196.848441
 30
0.0
 10
20.189525
 20
196.292402
 30
0.0
  0
SPLINE
  5
23b
100
AcDbEntity
  8
0
 62
7
100
AcDbSpline
 70
8
 71
3
 72
8
 73
4
 74
0
 40
0
 40
0
 40
0
 40
0
 40
1
 40
1
 40
1
 40
1
 10
19.676895
 20
197.594647
 30
0.0
 10
19.676895
 20
197.754500
 30
0.0
 10
19.637621
 20
197.875079
 30
0.0
 10
19.559072
 20
197.956382
 30
0.0
  0
SPLINE
  5
23c
100
AcDbEntity
  8
0
 62
7
100
AcDbSpline
 70
8
 71
3
 72
8
 73
4
 74
0
 40
0
 40
0
 40
0
 40
0
 40
1
 40
1
 40
1
 40
1
 10
19.559072
 20
197.956382
 30
0.0
 10
19.480524
 20
198.039066
 30
0.0
 10
19.368214
 20
198.080408
 30
0.0
 10
19.222142
 20
198.080408
 30
0.0
  0
SPLINE
  5
23d
100
AcDbEntity
  8
0
 62
7
100
AcDbSpline
 70
8
 71
3
 72
8
 73
4
 74
0
 40
0
 40
0
 40
0
 40
0
 40
1
 40
1
 40
1
 40
1
 10
19.222142
 20
198.080408
 30
0.0
 10
19.073314
 20
198.080408
 30
0.0
 10
18.956869
 20
198.038378
 30
0.0
 10
18.872809
 20
197.954318
 30
0.0
  0
SPLINE
  5
23e
100
AcDbEntity
  8
0
 62
7
100
AcDbSpline
 70
8
 71
3
 72
8
 73
4
 74
0
 40
0
 40
0
 40
0
 40
0
 40
1
 40
1
 40
1
 40
1
 10
18.872809
 20
197.954318
 30
0.0
 10
18.788748
 20
197.870256
 30
0.0
 10
18.739139
 20
197.750366
 30
0.0
 10
18.723981
 20
197.594647
 30
0.0
  0
LWPOLYLINE
  5
23f
100
AcDbEntity
  8
0
 62
7
100
AcDbPolyline
 90
1
 70
1
 10
19.321360
 20
196.118769
 30
0.0
  0
LWPOLYLINE
  5
240
100
AcDbEntity
  8
0
 62
7
100
AcDbPolyline
 90
2
 70
0
 10
18.723981
 20
197.594647
 30
0.0
 10
19.676895
 20
197.594647
 30
0.0
  0
LWPOLYLINE
  5
241
100
AcDbEntity
  8
0
 62
7
100
AcDbPolyline
 90
8
 70
1
 10
23.999114
 20
198.731531
 30
0.0
 10
23.215699
 20
198.731531
 30
0.0
 10
23.215699
 20
199.264832
 30
0.0
 10
25.392312
 20
199.264832
 30
0.0
 10
25.392312
 20
198.731531
 30
0.0
 10
24.608897
 20
198.731531
 30
0.0
 10
24.608897
 20
196.178713
 30
0.0
 10
23.999115
 20
196.178713
 30
0.0
  0
SPLINE
  5
242
100
AcDbEntity
  8
0
 62
7
100
AcDbSpline
 70
8
 71
3
 72
8
 73
4
 74
0
 40
0
 40
0
 40
0
 40
0
 40
1
 40
1
 40
1
 40
1
 10
26.682155
 20
198.134151
 30
0.0
 10
26.741413
 20
198.265064
 30
0.0
 10
26.831674
 20
198.367039
 30
0.0
 10
26.952941
 20
198.440076
 30
0.0
  0
SPLINE
  5
243
100
AcDbEntity
  8
0
 62
7
100
AcDbSpline
 70
8
 71
3
 72
8
 73
4
 74
0
 40
0
 40
0
 40
0
 40
0
 40
1
 40
1
 40
1
 40
1
 10
26.952941
 20
198.440076
 30
0.0
 10
27.075587
 20
198.513113
 30
0.0
 10
27.218903
 20
198.549631
 30
0.0
 10
27.382889
 20
198.549631
 30
0.0
  0
SPLINE
  5
244
100
AcDbEntity
  8
0
 62
7
100
AcDbSpline
 70
8
 71
3
 72
8
 73
4
 74
0
 40
0
 40
0
 40
0
 40
0
 40
1
 40
1
 40
1
 40
1
 10
27.382889
 20
198.549631
 30
0.0
 10
27.552387
 20
198.549631
 30
0.0
 10
27.709484
 20
198.510357
 30
0.0
 10
27.854179
 20
198.431807
 30
0.0
  0
LWPOLYLINE
  5
245
100
AcDbEntity
  8
0
 62
7
100
AcDbPolyline
 90
3
 70
0
 10
26.076508
 20
198.493818
 30
0.0
 10
26.622211
 20
198.493818
 30
0.0
 10
26.682155
 20
198.134151
 30
0.0
  0
SPLINE
  5
246
100
AcDbEntity
  8
0
 62
7
100
AcDbSpline
 70
8
 71
3
 72
8
 73
4
 74
0
 40
0
 40
0
 40
0
 40
0
 40
1
 40
1
 40
1
 40
1
 10
27.854179
 20
197.855100
 30
0.0
 10
27.720509
 20
197.976366
 30
0.0
 10
27.545498
 20
198.036999
 30
0.0
 10
27.329147
 20
198.036999
 30
0.0
  0
SPLINE
  5
247
100
AcDbEntity
  8
0
 62
7
100
AcDbSpline
 70
8
 71
3
 72
8
 73
4
 74
0
 40
0
 40
0
 40
0
 40
0
 40
1
 40
1
 40
1
 40
1
 10
27.329147
 20
198.036999
 30
0.0
 10
27.154136
 20
198.036999
 30
0.0
 10
27.012198
 20
197.997036
 30
0.0
 10
26.903333
 20
197.917111
 30
0.0
  0
SPLINE
  5
248
100
AcDbEntity
  8
0
 62
7
100
AcDbSpline
 70
8
 71
3
 72
8
 73
4
 74
0
 40
0
 40
0
 40
0
 40
0
 40
1
 40
1
 40
1
 40
1
 10
26.903333
 20
197.917111
 30
0.0
 10
26.794468
 20
197.837183
 30
0.0
 10
26.726944
 20
197.722116
 30
0.0
 10
26.700761
 20
197.571911
 30
0.0
  0
SPLINE
  5
249
100
AcDbEntity
  8
0
 62
7
100
AcDbSpline
 70
8
 71
3
 72
8
 73
4
 74
0
 40
0
 40
0
 40
0
 40
0
 40
1
 40
1
 40
1
 40
1
 10
26.700761
 20
197.571911
 30
0.0
 10
26.693870
 20
197.536082
 30
0.0
 10
26.689049
 20
197.492674
 30
0.0
 10
26.686297
 20
197.441686
 30
0.0
  0
SPLINE
  5
24a
100
AcDbEntity
  8
0
 62
7
100
AcDbSpline
 70
8
 71
3
 72
8
 73
4
 74
0
 40
0
 40
0
 40
0
 40
0
 40
1
 40
1
 40
1
 40
1
 10
26.686297
 20
197.441686
 30
0.0
 10
26.683545
 20
197.390698
 30
0.0
 10
26.682169
 20
197.325241
 30
0.0
 10
26.682169
 20
197.245316
 30
0.0
  0
LWPOLYLINE
  5
24b
100
AcDbEntity
  8
0
 62
7
100
AcDbPolyline
 90
2
 70
0
 10
27.854179
 20
198.431807
 30
0.0
 10
27.854179
 20
197.855100
 30
0.0
  0
SPLINE
  5
24c
100
AcDbEntity
  8
0
 62
7
100
AcDbSpline
 70
8
 71
3
 72
8
 73
4
 74
0
 40
0
 40
0
 40
0
 40
0
 40
1
 40
1
 40
1
 40
1
 10
29.127485
 20
196.118769
 30
0.0
 10
28.887707
 20
196.118769
 30
0.0
 10
28.693404
 20
196.186982
 30
0.0
 10
28.544576
 20
196.323408
 30
0.0
  0
SPLINE
  5
24d
100
AcDbEntity
  8
0
 62
7
100
AcDbSpline
 70
8
 71
3
 72
8
 73
4
 74
0
 40
0
 40
0
 40
0
 40
0
 40
1
 40
1
 40
1
 40
1
 10
28.544576
 20
196.323408
 30
0.0
 10
28.397127
 20
196.461213
 30
0.0
 10
28.323402
 20
196.658961
 30
0.0
 10
28.323402
 20
196.916654
 30
0.0
  0
SPLINE
  5
24e
100
AcDbEntity
  8
0
 62
7
100
AcDbSpline
 70
8
 71
3
 72
8
 73
4
 74
0
 40
0
 40
0
 40
0
 40
0
 40
1
 40
1
 40
1
 40
1
 10
28.323402
 20
196.916654
 30
0.0
 10
28.323402
 20
197.079263
 30
0.0
 10
28.352340
 20
197.211555
 30
0.0
 10
28.410217
 20
197.313529
 30
0.0
  0
SPLINE
  5
24f
100
AcDbEntity
  8
0
 62
7
100
AcDbSpline
 70
8
 71
3
 72
8
 73
4
 74
0
 40
0
 40
0
 40
0
 40
0
 40
1
 40
1
 40
1
 40
1
 10
28.410217
 20
197.313529
 30
0.0
 10
28.469472
 20
197.416881
 30
0.0
 10
28.549399
 20
197.496808
 30
0.0
 10
28.649997
 20
197.553309
 30
0.0
  0
SPLINE
  5
250
100
AcDbEntity
  8
0
 62
7
100
AcDbSpline
 70
8
 71
3
 72
8
 73
4
 74
0
 40
0
 40
0
 40
0
 40
0
 40
1
 40
1
 40
1
 40
1
 10
28.649997
 20
197.553309
 30
0.0
 10
28.751971
 20
197.609807
 30
0.0
 10
28.867036
 20
197.648392
 30
0.0
 10
28.995194
 20
197.669062
 30
0.0
  0
SPLINE
  5
251
100
AcDbEntity
  8
0
 62
7
100
AcDbSpline
 70
8
 71
3
 72
8
 73
4
 74
0
 40
0
 40
0
 40
0
 40
0
 40
1
 40
1
 40
1
 40
1
 10
28.995194
 20
197.669062
 30
0.0
 10
29.123353
 20
197.691099
 30
0.0
 10
29.257712
 20
197.702117
 30
0.0
 10
29.398271
 20
197.702117
 30
0.0
  0
LWPOLYLINE
  5
252
100
AcDbEntity
  8
0
 62
7
100
AcDbPolyline
 90
4
 70
0
 10
26.682169
 20
197.245316
 30
0.0
 10
26.682169
 20
196.178713
 30
0.0
 10
26.076522
 20
196.178713
 30
0.0
 10
26.076508
 20
198.493818
 30
0.0
  0
SPLINE
  5
253
100
AcDbEntity
  8
0
 62
7
100
AcDbSpline
 70
8
 71
3
 72
8
 73
4
 74
0
 40
0
 40
0
 40
0
 40
0
 40
1
 40
1
 40
1
 40
1
 10
29.817883
 20
197.803404
 30
0.0
 10
29.817883
 20
197.886085
 30
0.0
 10
29.795834
 20
197.948786
 30
0.0
 10
29.751737
 20
197.991505
 30
0.0
  0
SPLINE
  5
254
100
AcDbEntity
  8
0
 62
7
100
AcDbSpline
 70
8
 71
3
 72
8
 73
4
 74
0
 40
0
 40
0
 40
0
 40
0
 40
1
 40
1
 40
1
 40
1
 10
29.751737
 20
197.991505
 30
0.0
 10
29.709018
 20
198.034224
 30
0.0
 10
29.653208
 20
198.063163
 30
0.0
 10
29.584308
 20
198.078323
 30
0.0
  0
SPLINE
  5
255
100
AcDbEntity
  8
0
 62
7
100
AcDbSpline
 70
8
 71
3
 72
8
 73
4
 74
0
 40
0
 40
0
 40
0
 40
0
 40
1
 40
1
 40
1
 40
1
 10
29.584308
 20
198.078323
 30
0.0
 10
29.516784
 20
198.093469
 30
0.0
 10
29.447193
 20
198.101042
 30
0.0
 10
29.375534
 20
198.101042
 30
0.0
  0
SPLINE
  5
256
100
AcDbEntity
  8
0
 62
7
100
AcDbSpline
 70
8
 71
3
 72
8
 73
4
 74
0
 40
0
 40
0
 40
0
 40
0
 40
1
 40
1
 40
1
 40
1
 10
29.375534
 20
198.101042
 30
0.0
 10
29.229461
 20
198.101042
 30
0.0
 10
29.088901
 20
198.081061
 30
0.0
 10
28.953855
 20
198.041098
 30
0.0
  0
SPLINE
  5
257
100
AcDbEntity
  8
0
 62
7
100
AcDbSpline
 70
8
 71
3
 72
8
 73
4
 74
0
 40
0
 40
0
 40
0
 40
0
 40
1
 40
1
 40
1
 40
1
 10
28.953855
 20
198.041098
 30
0.0
 10
28.820185
 20
198.001136
 30
0.0
 10
28.686515
 20
197.944636
 30
0.0
 10
28.552845
 20
197.871599
 30
0.0
  0
LWPOLYLINE
  5
258
100
AcDbEntity
  8
0
 62
7
100
AcDbPolyline
 90
3
 70
0
 10
29.398271
 20
197.702117
 30
0.0
 10
29.817883
 20
197.702117
 30
0.0
 10
29.817883
 20
197.803404
 30
0.0
  0
SPLINE
  5
259
100
AcDbEntity
  8
0
 62
7
100
AcDbSpline
 70
8
 71
3
 72
8
 73
4
 74
0
 40
0
 40
0
 40
0
 40
0
 40
1
 40
1
 40
1
 40
1
 10
28.552845
 20
198.388362
 30
0.0
 10
28.696160
 20
198.446241
 30
0.0
 10
28.838098
 20
198.487584
 30
0.0
 10
28.978659
 20
198.512389
 30
0.0
  0
SPLINE
  5
25a
100
AcDbEntity
  8
0
 62
7
100
AcDbSpline
 70
8
 71
3
 72
8
 73
4
 74
0
 40
0
 40
0
 40
0
 40
0
 40
1
 40
1
 40
1
 40
1
 10
28.978659
 20
198.512389
 30
0.0
 10
29.120596
 20
198.538569
 30
0.0
 10
29.263912
 20
198.551660
 30
0.0
 10
29.408607
 20
198.551660
 30
0.0
  0
SPLINE
  5
25b
100
AcDbEntity
  8
0
 62
7
100
AcDbSpline
 70
8
 71
3
 72
8
 73
4
 74
0
 40
0
 40
0
 40
0
 40
0
 40
1
 40
1
 40
1
 40
1
 10
29.408607
 20
198.551660
 30
0.0
 10
29.662165
 20
198.551660
 30
0.0
 10
29.862670
 20
198.515143
 30
0.0
 10
30.010122
 20
198.442108
 30
0.0
  0
SPLINE
  5
25c
100
AcDbEntity
  8
0
 62
7
100
AcDbSpline
 70
8
 71
3
 72
8
 73
4
 74
0
 40
0
 40
0
 40
0
 40
0
 40
1
 40
1
 40
1
 40
1
 10
30.010122
 20
198.442108
 30
0.0
 10
30.157571
 20
198.370449
 30
0.0
 10
30.262302
 20
198.258828
 30
0.0
 10
30.324313
 20
198.107244
 30
0.0
  0
SPLINE
  5
25d
100
AcDbEntity
  8
0
 62
7
100
AcDbSpline
 70
8
 71
3
 72
8
 73
4
 74
0
 40
0
 40
0
 40
0
 40
0
 40
1
 40
1
 40
1
 40
1
 10
30.324313
 20
198.107244
 30
0.0
 10
30.387702
 20
197.957038
 30
0.0
 10
30.419397
 20
197.765490
 30
0.0
 10
30.419397
 20
197.532601
 30
0.0
  0
SPLINE
  5
25e
100
AcDbEntity
  8
0
 62
7
100
AcDbSpline
 70
8
 71
3
 72
8
 73
4
 74
0
 40
0
 40
0
 40
0
 40
0
 40
1
 40
1
 40
1
 40
1
 10
30.419397
 20
197.532601
 30
0.0
 10
30.419397
 20
197.478858
 30
0.0
 10
30.418021
 20
197.409957
 30
0.0
 10
30.415270
 20
197.325897
 30
0.0
  0
SPLINE
  5
25f
100
AcDbEntity
  8
0
 62
7
100
AcDbSpline
 70
8
 71
3
 72
8
 73
4
 74
0
 40
0
 40
0
 40
0
 40
0
 40
1
 40
1
 40
1
 40
1
 10
30.415270
 20
197.325897
 30
0.0
 10
30.413859
 20
197.241835
 30
0.0
 10
30.413153
 20
197.157774
 30
0.0
 10
30.413153
 20
197.073714
 30
0.0
  0
SPLINE
  5
260
100
AcDbEntity
  8
0
 62
7
100
AcDbSpline
 70
8
 71
3
 72
8
 73
4
 74
0
 40
0
 40
0
 40
0
 40
0
 40
1
 40
1
 40
1
 40
1
 10
30.413153
 20
197.073714
 30
0.0
 10
30.413153
 20
196.999301
 30
0.0
 10
30.412447
 20
196.929022
 30
0.0
 10
30.411036
 20
196.862876
 30
0.0
  0
SPLINE
  5
261
100
AcDbEntity
  8
0
 62
7
100
AcDbSpline
 70
8
 71
3
 72
8
 73
4
 74
0
 40
0
 40
0
 40
0
 40
0
 40
1
 40
1
 40
1
 40
1
 10
30.411036
 20
196.862876
 30
0.0
 10
30.409625
 20
196.796730
 30
0.0
 10
30.408920
 20
196.740920
 30
0.0
 10
30.408920
 20
196.695444
 30
0.0
  0
SPLINE
  5
262
100
AcDbEntity
  8
0
 62
7
100
AcDbSpline
 70
8
 71
3
 72
8
 73
4
 74
0
 40
0
 40
0
 40
0
 40
0
 40
1
 40
1
 40
1
 40
1
 10
30.408920
 20
196.695444
 30
0.0
 10
30.408920
 20
196.655479
 30
0.0
 10
30.410989
 20
196.603113
 30
0.0
 10
30.415129
 20
196.538345
 30
0.0
  0
SPLINE
  5
263
100
AcDbEntity
  8
0
 62
7
100
AcDbSpline
 70
8
 71
3
 72
8
 73
4
 74
0
 40
0
 40
0
 40
0
 40
0
 40
1
 40
1
 40
1
 40
1
 10
30.415129
 20
196.538345
 30
0.0
 10
30.419268
 20
196.474956
 30
0.0
 10
30.428910
 20
196.410188
 30
0.0
 10
30.444056
 20
196.344042
 30
0.0
  0
SPLINE
  5
264
100
AcDbEntity
  8
0
 62
7
100
AcDbSpline
 70
8
 71
3
 72
8
 73
4
 74
0
 40
0
 40
0
 40
0
 40
0
 40
1
 40
1
 40
1
 40
1
 10
30.444056
 20
196.344042
 30
0.0
 10
30.459202
 20
196.277896
 30
0.0
 10
30.482628
 20
196.222775
 30
0.0
 10
30.514333
 20
196.178677
 30
0.0
  0
LWPOLYLINE
  5
265
100
AcDbEntity
  8
0
 62
7
100
AcDbPolyline
 90
2
 70
0
 10
28.552845
 20
197.871599
 30
0.0
 10
28.552845
 20
198.388362
 30
0.0
  0
SPLINE
  5
266
100
AcDbEntity
  8
0
 62
7
100
AcDbSpline
 70
8
 71
3
 72
8
 73
4
 74
0
 40
0
 40
0
 40
0
 40
0
 40
1
 40
1
 40
1
 40
1
 10
29.914889
 20
196.178677
 30
0.0
 10
29.888706
 20
196.222775
 30
0.0
 10
29.869413
 20
196.264116
 30
0.0
 10
29.857009
 20
196.302700
 30
0.0
  0
SPLINE
  5
267
100
AcDbEntity
  8
0
 62
7
100
AcDbSpline
 70
8
 71
3
 72
8
 73
4
 74
0
 40
0
 40
0
 40
0
 40
0
 40
1
 40
1
 40
1
 40
1
 10
29.857009
 20
196.302700
 30
0.0
 10
29.844615
 20
196.341287
 30
0.0
 10
29.835654
 20
196.386073
 30
0.0
 10
29.830127
 20
196.437059
 30
0.0
  0
SPLINE
  5
268
100
AcDbEntity
  8
0
 62
7
100
AcDbSpline
 70
8
 71
3
 72
8
 73
4
 74
0
 40
0
 40
0
 40
0
 40
0
 40
1
 40
1
 40
1
 40
1
 10
29.830127
 20
196.437059
 30
0.0
 10
29.748824
 20
196.328194
 30
0.0
 10
29.646849
 20
196.247580
 30
0.0
 10
29.524202
 20
196.195216
 30
0.0
  0
SPLINE
  5
269
100
AcDbEntity
  8
0
 62
7
100
AcDbSpline
 70
8
 71
3
 72
8
 73
4
 74
0
 40
0
 40
0
 40
0
 40
0
 40
1
 40
1
 40
1
 40
1
 10
29.524202
 20
196.195216
 30
0.0
 10
29.402936
 20
196.144227
 30
0.0
 10
29.270644
 20
196.118733
 30
0.0
 10
29.127327
 20
196.118733
 30
0.0
  0
LWPOLYLINE
  5
26a
100
AcDbEntity
  8
0
 62
7
100
AcDbPolyline
 90
2
 70
0
 10
30.514333
 20
196.178677
 30
0.0
 10
29.914889
 20
196.178677
 30
0.0
  0
SPLINE
  5
26b
100
AcDbEntity
  8
0
 62
7
100
AcDbSpline
 70
8
 71
3
 72
8
 73
4
 74
0
 40
0
 40
0
 40
0
 40
0
 40
1
 40
1
 40
1
 40
1
 10
29.325923
 20
196.538380
 30
0.0
 10
29.452704
 20
196.538380
 30
0.0
 10
29.551234
 20
196.572832
 30
0.0
 10
29.621512
 20
196.641734
 30
0.0
  0
SPLINE
  5
26c
100
AcDbEntity
  8
0
 62
7
100
AcDbSpline
 70
8
 71
3
 72
8
 73
4
 74
0
 40
0
 40
0
 40
0
 40
0
 40
1
 40
1
 40
1
 40
1
 10
29.621512
 20
196.641734
 30
0.0
 10
29.693171
 20
196.712014
 30
0.0
 10
29.743470
 20
196.799520
 30
0.0
 10
29.772409
 20
196.904250
 30
0.0
  0
SPLINE
  5
26d
100
AcDbEntity
  8
0
 62
7
100
AcDbSpline
 70
8
 71
3
 72
8
 73
4
 74
0
 40
0
 40
0
 40
0
 40
0
 40
1
 40
1
 40
1
 40
1
 10
29.772409
 20
196.904250
 30
0.0
 10
29.802725
 20
197.010359
 30
0.0
 10
29.817883
 20
197.117157
 30
0.0
 10
29.817883
 20
197.224647
 30
0.0
  0
LWPOLYLINE
  5
26e
100
AcDbEntity
  8
0
 62
7
100
AcDbPolyline
 90
2
 70
0
 10
29.127327
 20
196.118733
 30
0.0
 10
29.127485
 20
196.118769
 30
0.0
  0
SPLINE
  5
26f
100
AcDbEntity
  8
0
 62
7
100
AcDbSpline
 70
8
 71
3
 72
8
 73
4
 74
0
 40
0
 40
0
 40
0
 40
0
 40
1
 40
1
 40
1
 40
1
 10
29.576039
 20
197.265985
 30
0.0
 10
29.480954
 20
197.265985
 30
0.0
 10
29.386558
 20
197.259094
 30
0.0
 10
29.292850
 20
197.245312
 30
0.0
  0
SPLINE
  5
270
100
AcDbEntity
  8
0
 62
7
100
AcDbSpline
 70
8
 71
3
 72
8
 73
4
 74
0
 40
0
 40
0
 40
0
 40
0
 40
1
 40
1
 40
1
 40
1
 10
29.292850
 20
197.245312
 30
0.0
 10
29.199146
 20
197.232918
 30
0.0
 10
29.121286
 20
197.200534
 30
0.0
 10
29.059273
 20
197.148161
 30
0.0
  0
SPLINE
  5
271
100
AcDbEntity
  8
0
 62
7
100
AcDbSpline
 70
8
 71
3
 72
8
 73
4
 74
0
 40
0
 40
0
 40
0
 40
0
 40
1
 40
1
 40
1
 40
1
 10
29.059273
 20
197.148161
 30
0.0
 10
28.998639
 20
197.097173
 30
0.0
 10
28.968323
 20
197.012424
 30
0.0
 10
28.968323
 20
196.893914
 30
0.0
  0
SPLINE
  5
272
100
AcDbEntity
  8
0
 62
7
100
AcDbSpline
 70
8
 71
3
 72
8
 73
4
 74
0
 40
0
 40
0
 40
0
 40
0
 40
1
 40
1
 40
1
 40
1
 10
28.968323
 20
196.893914
 30
0.0
 10
28.968323
 20
196.780914
 30
0.0
 10
28.999329
 20
196.693409
 30
0.0
 10
29.061340
 20
196.631397
 30
0.0
  0
SPLINE
  5
273
100
AcDbEntity
  8
0
 62
7
100
AcDbSpline
 70
8
 71
3
 72
8
 73
4
 74
0
 40
0
 40
0
 40
0
 40
0
 40
1
 40
1
 40
1
 40
1
 10
29.061340
 20
196.631397
 30
0.0
 10
29.124729
 20
196.569384
 30
0.0
 10
29.212924
 20
196.538377
 30
0.0
 10
29.325923
 20
196.538377
 30
0.0
  0
LWPOLYLINE
  5
274
100
AcDbEntity
  8
0
 62
7
100
AcDbPolyline
 90
3
 70
0
 10
29.817883
 20
197.224647
 30
0.0
 10
29.817883
 20
197.265985
 30
0.0
 10
29.576039
 20
197.265985
 30
0.0
  0
SPLINE
  5
275
100
AcDbEntity
  8
0
 62
7
100
AcDbSpline
 70
8
 71
3
 72
8
 73
4
 74
0
 40
0
 40
0
 40
0
 40
0
 40
1
 40
1
 40
1
 40
1
 10
32.141257
 20
196.118769
 30
0.0
 10
31.774700
 20
196.118769
 30
0.0
 10
31.489446
 20
196.225566
 30
0.0
 10
31.285495
 20
196.439162
 30
0.0
  0
SPLINE
  5
276
100
AcDbEntity
  8
0
 62
7
100
AcDbSpline
 70
8
 71
3
 72
8
 73
4
 74
0
 40
0
 40
0
 40
0
 40
0
 40
1
 40
1
 40
1
 40
1
 10
31.285495
 20
196.439162
 30
0.0
 10
31.082923
 20
196.652759
 30
0.0
 10
30.981637
 20
196.950416
 30
0.0
 10
30.981637
 20
197.332131
 30
0.0
  0
SPLINE
  5
277
100
AcDbEntity
  8
0
 62
7
100
AcDbSpline
 70
8
 71
3
 72
8
 73
4
 74
0
 40
0
 40
0
 40
0
 40
0
 40
1
 40
1
 40
1
 40
1
 10
30.981637
 20
197.332131
 30
0.0
 10
30.981637
 20
197.715227
 30
0.0
 10
31.082234
 20
198.014261
 30
0.0
 10
31.283428
 20
198.229235
 30
0.0
  0
SPLINE
  5
278
100
AcDbEntity
  8
0
 62
7
100
AcDbSpline
 70
8
 71
3
 72
8
 73
4
 74
0
 40
0
 40
0
 40
0
 40
0
 40
1
 40
1
 40
1
 40
1
 10
31.283428
 20
198.229235
 30
0.0
 10
31.484622
 20
198.445587
 30
0.0
 10
31.764365
 20
198.553762
 30
0.0
 10
32.122655
 20
198.553762
 30
0.0
  0
SPLINE
  5
279
100
AcDbEntity
  8
0
 62
7
100
AcDbSpline
 70
8
 71
3
 72
8
 73
4
 74
0
 40
0
 40
0
 40
0
 40
0
 40
1
 40
1
 40
1
 40
1
 10
32.122655
 20
198.553762
 30
0.0
 10
32.367947
 20
198.553762
 30
0.0
 10
32.602901
 20
198.494507
 30
0.0
 10
32.827520
 20
198.375998
 30
0.0
  0
LWPOLYLINE
  5
27a
100
AcDbEntity
  8
0
 62
7
100
AcDbPolyline
 90
1
 70
1
 10
29.325923
 20
196.538377
 30
0.0
  0
SPLINE
  5
27b
100
AcDbEntity
  8
0
 62
7
100
AcDbSpline
 70
8
 71
3
 72
8
 73
4
 74
0
 40
0
 40
0
 40
0
 40
0
 40
1
 40
1
 40
1
 40
1
 10
32.827520
 20
197.822027
 30
0.0
 10
32.648377
 20
197.979121
 30
0.0
 10
32.446495
 20
198.057668
 30
0.0
 10
32.221874
 20
198.057668
 30
0.0
  0
SPLINE
  5
27c
100
AcDbEntity
  8
0
 62
7
100
AcDbSpline
 70
8
 71
3
 72
8
 73
4
 74
0
 40
0
 40
0
 40
0
 40
0
 40
1
 40
1
 40
1
 40
1
 10
32.221874
 20
198.057668
 30
0.0
 10
32.019302
 20
198.057668
 30
0.0
 10
31.864272
 20
197.994968
 30
0.0
 10
31.756786
 20
197.869567
 30
0.0
  0
SPLINE
  5
27d
100
AcDbEntity
  8
0
 62
7
100
AcDbSpline
 70
8
 71
3
 72
8
 73
4
 74
0
 40
0
 40
0
 40
0
 40
0
 40
1
 40
1
 40
1
 40
1
 10
31.756786
 20
197.869567
 30
0.0
 10
31.649299
 20
197.744166
 30
0.0
 10
31.595556
 20
197.565710
 30
0.0
 10
31.595556
 20
197.334198
 30
0.0
  0
SPLINE
  5
27e
100
AcDbEntity
  8
0
 62
7
100
AcDbSpline
 70
8
 71
3
 72
8
 73
4
 74
0
 40
0
 40
0
 40
0
 40
0
 40
1
 40
1
 40
1
 40
1
 10
31.595556
 20
197.334198
 30
0.0
 10
31.595556
 20
197.104067
 30
0.0
 10
31.648610
 20
196.926300
 30
0.0
 10
31.754718
 20
196.800897
 30
0.0
  0
SPLINE
  5
27f
100
AcDbEntity
  8
0
 62
7
100
AcDbSpline
 70
8
 71
3
 72
8
 73
4
 74
0
 40
0
 40
0
 40
0
 40
0
 40
1
 40
1
 40
1
 40
1
 10
31.754718
 20
196.800897
 30
0.0
 10
31.862205
 20
196.676874
 30
0.0
 10
32.015167
 20
196.614863
 30
0.0
 10
32.213605
 20
196.614863
 30
0.0
  0
SPLINE
  5
280
100
AcDbEntity
  8
0
 62
7
100
AcDbSpline
 70
8
 71
3
 72
8
 73
4
 74
0
 40
0
 40
0
 40
0
 40
0
 40
1
 40
1
 40
1
 40
1
 10
32.213605
 20
196.614863
 30
0.0
 10
32.449249
 20
196.614863
 30
0.0
 10
32.653887
 20
196.694100
 30
0.0
 10
32.827520
 20
196.852575
 30
0.0
  0
LWPOLYLINE
  5
281
100
AcDbEntity
  8
0
 62
7
100
AcDbPolyline
 90
2
 70
0
 10
32.827520
 20
198.375998
 30
0.0
 10
32.827520
 20
197.822027
 30
0.0
  0
SPLINE
  5
282
100
AcDbEntity
  8
0
 62
7
100
AcDbSpline
 70
8
 71
3
 72
8
 73
4
 74
0
 40
0
 40
0
 40
0
 40
0
 40
1
 40
1
 40
1
 40
1
 10
32.827520
 20
196.296537
 30
0.0
 10
32.622194
 20
196.178025
 30
0.0
 10
32.393439
 20
196.118769
 30
0.0
 10
32.141257
 20
196.118769
 30
0.0
  0
LWPOLYLINE
  5
283
100
AcDbEntity
  8
0
 62
7
100
AcDbPolyline
 90
2
 70
0
 10
32.827520
 20
196.852575
 30
0.0
 10
32.827520
 20
196.296537
 30
0.0
  0
LWPOLYLINE
  5
284
100
AcDbEntity
  8
0
 62
7
100
AcDbPolyline
 90
1
 70
1
 10
32.141257
 20
196.118769
 30
0.0
  0
SPLINE
  5
285
100
AcDbEntity
  8
0
 62
7
100
AcDbSpline
 70
8
 71
3
 72
8
 73
4
 74
0
 40
0
 40
0
 40
0
 40
0
 40
1
 40
1
 40
1
 40
1
 10
36.705323
 20
198.768738
 30
0.0
 10
36.663982
 20
198.768738
 30
0.0
 10
36.643311
 20
198.789409
 30
0.0
 10
36.643311
 20
198.830750
 30
0.0
  0
LWPOLYLINE
  5
286
100
AcDbEntity
  8
0
 62
7
100
AcDbPolyline
 90
12
 70
1
 10
33.584066
 20
199.395057
 30
0.0
 10
34.189712
 20
199.395057
 30
0.0
 10
34.189712
 20
197.706270
 30
0.0
 10
34.917317
 20
198.493818
 30
0.0
 10
35.651123
 20
198.493818
 30
0.0
 10
34.774692
 20
197.629787
 30
0.0
 10
35.700734
 20
196.178713
 30
0.0
 10
35.031006
 20
196.178713
 30
0.0
 10
34.396419
 20
197.261851
 30
0.0
 10
34.189712
 20
197.063413
 30
0.0
 10
34.189712
 20
196.178713
 30
0.0
 10
33.584066
 20
196.178713
 30
0.0
  0
SPLINE
  5
287
100
AcDbEntity
  8
0
 62
7
100
AcDbSpline
 70
8
 71
3
 72
8
 73
4
 74
0
 40
0
 40
0
 40
0
 40
0
 40
1
 40
1
 40
1
 40
1
 10
36.643311
 20
199.413659
 30
0.0
 10
36.643311
 20
199.455002
 30
0.0
 10
36.663982
 20
199.475674
 30
0.0
 10
36.705323
 20
199.475674
 30
0.0
  0
LWPOLYLINE
  5
288
100
AcDbEntity
  8
0
 62
7
100
AcDbPolyline
 90
2
 70
0
 10
36.643311
 20
198.830750
 30
0.0
 10
36.643311
 20
199.413659
 30
0.0
  0
SPLINE
  5
289
100
AcDbEntity
  8
0
 62
7
100
AcDbSpline
 70
8
 71
3
 72
8
 73
4
 74
0
 40
0
 40
0
 40
0
 40
0
 40
1
 40
1
 40
1
 40
1
 10
37.186949
 20
199.475674
 30
0.0
 10
37.228290
 20
199.475674
 30
0.0
 10
37.248961
 20
199.455002
 30
0.0
 10
37.248961
 20
199.413659
 30
0.0
  0
LWPOLYLINE
  5
28a
100
AcDbEntity
  8
0
 62
7
100
AcDbPolyline
 90
2
 70
0
 10
36.705323
 20
199.475674
 30
0.0
 10
37.186949
 20
199.475674
 30
0.0
  0
SPLINE
  5
28b
100
AcDbEntity
  8
0
 62
7
100
AcDbSpline
 70
8
 71
3
 72
8
 73
4
 74
0
 40
0
 40
0
 40
0
 40
0
 40
1
 40
1
 40
1
 40
1
 10
37.248961
 20
198.830750
 30
0.0
 10
37.248961
 20
198.789409
 30
0.0
 10
37.228290
 20
198.768738
 30
0.0
 10
37.186949
 20
198.768738
 30
0.0
  0
LWPOLYLINE
  5
28c
100
AcDbEntity
  8
0
 62
7
100
AcDbPolyline
 90
2
 70
0
 10
37.248961
 20
199.413659
 30
0.0
 10
37.248961
 20
198.830750
 30
0.0
  0
SPLINE
  5
28d
100
AcDbEntity
  8
0
 62
7
100
AcDbSpline
 70
8
 71
3
 72
8
 73
4
 74
0
 40
0
 40
0
 40
0
 40
0
 40
1
 40
1
 40
1
 40
1
 10
37.451533
 20
196.153909
 30
0.0
 10
37.164901
 20
196.153909
 30
0.0
 10
36.958194
 20
196.229012
 30
0.0
 10
36.831413
 20
196.379218
 30
0.0
  0
SPLINE
  5
28e
100
AcDbEntity
  8
0
 62
7
100
AcDbSpline
 70
8
 71
3
 72
8
 73
4
 74
0
 40
0
 40
0
 40
0
 40
0
 40
1
 40
1
 40
1
 40
1
 10
36.831413
 20
196.379218
 30
0.0
 10
36.706012
 20
196.530802
 30
0.0
 10
36.643311
 20
196.777471
 30
0.0
 10
36.643311
 20
197.119226
 30
0.0
  0
LWPOLYLINE
  5
28f
100
AcDbEntity
  8
0
 62
7
100
AcDbPolyline
 90
2
 70
0
 10
37.186949
 20
198.768738
 30
0.0
 10
36.705323
 20
198.768738
 30
0.0
  0
SPLINE
  5
290
100
AcDbEntity
  8
0
 62
7
100
AcDbSpline
 70
8
 71
3
 72
8
 73
4
 74
0
 40
0
 40
0
 40
0
 40
0
 40
1
 40
1
 40
1
 40
1
 10
37.248961
 20
197.119226
 30
0.0
 10
37.248961
 20
196.940081
 30
0.0
 10
37.277210
 20
196.811922
 30
0.0
 10
37.333708
 20
196.734751
 30
0.0
  0
SPLINE
  5
291
100
AcDbEntity
  8
0
 62
7
100
AcDbSpline
 70
8
 71
3
 72
8
 73
4
 74
0
 40
0
 40
0
 40
0
 40
0
 40
1
 40
1
 40
1
 40
1
 10
37.333708
 20
196.734751
 30
0.0
 10
37.391588
 20
196.657582
 30
0.0
 10
37.487362
 20
196.618997
 30
0.0
 10
37.621032
 20
196.618997
 30
0.0
  0
LWPOLYLINE
  5
292
100
AcDbEntity
  8
0
 62
7
100
AcDbPolyline
 90
6
 70
0
 10
36.643311
 20
197.119226
 30
0.0
 10
36.643311
 20
198.028730
 30
0.0
 10
36.153419
 20
198.028730
 30
0.0
 10
36.153419
 20
198.493818
 30
0.0
 10
37.248961
 20
198.493818
 30
0.0
 10
37.248961
 20
197.119226
 30
0.0
  0
LWPOLYLINE
  5
293
100
AcDbEntity
  8
0
 62
7
100
AcDbPolyline
 90
4
 70
0
 10
37.621032
 20
196.618997
 30
0.0
 10
38.104722
 20
196.618997
 30
0.0
 10
38.104722
 20
196.153909
 30
0.0
 10
37.451533
 20
196.153909
 30
0.0
  0
SPLINE
  5
294
100
AcDbEntity
  8
0
 62
7
100
AcDbSpline
 70
8
 71
3
 72
8
 73
4
 74
0
 40
0
 40
0
 40
0
 40
0
 40
1
 40
1
 40
1
 40
1
 10
39.278810
 20
198.146554
 30
0.0
 10
39.321529
 20
198.276090
 30
0.0
 10
39.394566
 20
198.375308
 30
0.0
 10
39.497920
 20
198.444211
 30
0.0
  0
SPLINE
  5
295
100
AcDbEntity
  8
0
 62
7
100
AcDbSpline
 70
8
 71
3
 72
8
 73
4
 74
0
 40
0
 40
0
 40
0
 40
0
 40
1
 40
1
 40
1
 40
1
 10
39.497920
 20
198.444211
 30
0.0
 10
39.602651
 20
198.514491
 30
0.0
 10
39.729430
 20
198.549631
 30
0.0
 10
39.878257
 20
198.549631
 30
0.0
  0
SPLINE
  5
296
100
AcDbEntity
  8
0
 62
7
100
AcDbSpline
 70
8
 71
3
 72
8
 73
4
 74
0
 40
0
 40
0
 40
0
 40
0
 40
1
 40
1
 40
1
 40
1
 10
39.878257
 20
198.549631
 30
0.0
 10
40.093233
 20
198.549631
 30
0.0
 10
40.256531
 20
198.475905
 30
0.0
 10
40.368150
 20
198.328454
 30
0.0
  0
SPLINE
  5
297
100
AcDbEntity
  8
0
 62
7
100
AcDbSpline
 70
8
 71
3
 72
8
 73
4
 74
0
 40
0
 40
0
 40
0
 40
0
 40
1
 40
1
 40
1
 40
1
 10
40.368150
 20
198.328454
 30
0.0
 10
40.479771
 20
198.181004
 30
0.0
 10
40.535582
 20
197.965342
 30
0.0
 10
40.535582
 20
197.681466
 30
0.0
  0
LWPOLYLINE
  5
298
100
AcDbEntity
  8
0
 62
7
100
AcDbPolyline
 90
3
 70
0
 10
38.677299
 20
198.493818
 30
0.0
 10
39.218866
 20
198.493818
 30
0.0
 10
39.278810
 20
198.146554
 30
0.0
  0
SPLINE
  5
299
100
AcDbEntity
  8
0
 62
7
100
AcDbSpline
 70
8
 71
3
 72
8
 73
4
 74
0
 40
0
 40
0
 40
0
 40
0
 40
1
 40
1
 40
1
 40
1
 10
39.934070
 20
197.588449
 30
0.0
 10
39.934070
 20
197.751056
 30
0.0
 10
39.910644
 20
197.869567
 30
0.0
 10
39.863790
 20
197.943982
 30
0.0
  0
SPLINE
  5
29a
100
AcDbEntity
  8
0
 62
7
100
AcDbSpline
 70
8
 71
3
 72
8
 73
4
 74
0
 40
0
 40
0
 40
0
 40
0
 40
1
 40
1
 40
1
 40
1
 10
39.863790
 20
197.943982
 30
0.0
 10
39.818314
 20
198.019773
 30
0.0
 10
39.747345
 20
198.057668
 30
0.0
 10
39.650881
 20
198.057668
 30
0.0
  0
SPLINE
  5
29b
100
AcDbEntity
  8
0
 62
7
100
AcDbSpline
 70
8
 71
3
 72
8
 73
4
 74
0
 40
0
 40
0
 40
0
 40
0
 40
1
 40
1
 40
1
 40
1
 10
39.650881
 20
198.057668
 30
0.0
 10
39.533747
 20
198.057668
 30
0.0
 10
39.442107
 20
198.008059
 30
0.0
 10
39.375961
 20
197.908842
 30
0.0
  0
SPLINE
  5
29c
100
AcDbEntity
  8
0
 62
7
100
AcDbSpline
 70
8
 71
3
 72
8
 73
4
 74
0
 40
0
 40
0
 40
0
 40
0
 40
1
 40
1
 40
1
 40
1
 10
39.375961
 20
197.908842
 30
0.0
 10
39.311194
 20
197.809622
 30
0.0
 10
39.278810
 20
197.674574
 30
0.0
 10
39.278810
 20
197.503697
 30
0.0
  0
LWPOLYLINE
  5
29d
100
AcDbEntity
  8
0
 62
7
100
AcDbPolyline
 90
4
 70
0
 10
40.535582
 20
197.681466
 30
0.0
 10
40.535582
 20
196.178713
 30
0.0
 10
39.934070
 20
196.178713
 30
0.0
 10
39.934070
 20
197.588449
 30
0.0
  0
SPLINE
  5
29e
100
AcDbEntity
  8
0
 62
7
100
AcDbSpline
 70
8
 71
3
 72
8
 73
4
 74
0
 40
0
 40
0
 40
0
 40
0
 40
1
 40
1
 40
1
 40
1
 10
42.075542
 20
195.302282
 30
0.0
 10
41.813715
 20
195.302282
 30
0.0
 10
41.560156
 20
195.340177
 30
0.0
 10
41.314865
 20
195.415968
 30
0.0
  0
LWPOLYLINE
  5
29f
100
AcDbEntity
  8
0
 62
7
100
AcDbPolyline
 90
4
 70
0
 10
39.278810
 20
197.503697
 30
0.0
 10
39.278810
 20
196.178713
 30
0.0
 10
38.677299
 20
196.178713
 30
0.0
 10
38.677299
 20
198.493818
 30
0.0
  0
SPLINE
  5
2a0
100
AcDbEntity
  8
0
 62
7
100
AcDbSpline
 70
8
 71
3
 72
8
 73
4
 74
0
 40
0
 40
0
 40
0
 40
0
 40
1
 40
1
 40
1
 40
1
 10
41.314865
 20
195.972006
 30
0.0
 10
41.538107
 20
195.847983
 30
0.0
 10
41.770996
 20
195.785972
 30
0.0
 10
42.013531
 20
195.785972
 30
0.0
  0
SPLINE
  5
2a1
100
AcDbEntity
  8
0
 62
7
100
AcDbSpline
 70
8
 71
3
 72
8
 73
4
 74
0
 40
0
 40
0
 40
0
 40
0
 40
1
 40
1
 40
1
 40
1
 10
42.013531
 20
195.785972
 30
0.0
 10
42.194054
 20
195.785972
 30
0.0
 10
42.324968
 20
195.825935
 30
0.0
 10
42.406272
 20
195.905860
 30
0.0
  0
SPLINE
  5
2a2
100
AcDbEntity
  8
0
 62
7
100
AcDbSpline
 70
8
 71
3
 72
8
 73
4
 74
0
 40
0
 40
0
 40
0
 40
0
 40
1
 40
1
 40
1
 40
1
 10
42.406272
 20
195.905860
 30
0.0
 10
42.488953
 20
195.985788
 30
0.0
 10
42.530294
 20
196.111879
 30
0.0
 10
42.530294
 20
196.284133
 30
0.0
  0
LWPOLYLINE
  5
2a3
100
AcDbEntity
  8
0
 62
7
100
AcDbPolyline
 90
2
 70
0
 10
41.314865
 20
195.415968
 30
0.0
 10
41.314865
 20
195.972006
 30
0.0
  0
SPLINE
  5
2a4
100
AcDbEntity
  8
0
 62
7
100
AcDbSpline
 70
8
 71
3
 72
8
 73
4
 74
0
 40
0
 40
0
 40
0
 40
0
 40
1
 40
1
 40
1
 40
1
 10
42.530294
 20
196.534246
 30
0.0
 10
42.411782
 20
196.316516
 30
0.0
 10
42.216101
 20
196.207651
 30
0.0
 10
41.943250
 20
196.207651
 30
0.0
  0
SPLINE
  5
2a5
100
AcDbEntity
  8
0
 62
7
100
AcDbSpline
 70
8
 71
3
 72
8
 73
4
 74
0
 40
0
 40
0
 40
0
 40
0
 40
1
 40
1
 40
1
 40
1
 10
41.943250
 20
196.207651
 30
0.0
 10
41.780641
 20
196.207651
 30
0.0
 10
41.643526
 20
196.240724
 30
0.0
 10
41.531904
 20
196.306870
 30
0.0
  0
SPLINE
  5
2a6
100
AcDbEntity
  8
0
 62
7
100
AcDbSpline
 70
8
 71
3
 72
8
 73
4
 74
0
 40
0
 40
0
 40
0
 40
0
 40
1
 40
1
 40
1
 40
1
 10
41.531904
 20
196.306870
 30
0.0
 10
41.421661
 20
196.374394
 30
0.0
 10
41.332778
 20
196.463278
 30
0.0
 10
41.265253
 20
196.573521
 30
0.0
  0
SPLINE
  5
2a7
100
AcDbEntity
  8
0
 62
7
100
AcDbSpline
 70
8
 71
3
 72
8
 73
4
 74
0
 40
0
 40
0
 40
0
 40
0
 40
1
 40
1
 40
1
 40
1
 10
41.265253
 20
196.573521
 30
0.0
 10
41.197729
 20
196.685142
 30
0.0
 10
41.148810
 20
196.808477
 30
0.0
 10
41.118494
 20
196.943525
 30
0.0
  0
SPLINE
  5
2a8
100
AcDbEntity
  8
0
 62
7
100
AcDbSpline
 70
8
 71
3
 72
8
 73
4
 74
0
 40
0
 40
0
 40
0
 40
0
 40
1
 40
1
 40
1
 40
1
 10
41.118494
 20
196.943525
 30
0.0
 10
41.088177
 20
197.078573
 30
0.0
 10
41.073018
 20
197.214999
 30
0.0
 10
41.073018
 20
197.352804
 30
0.0
  0
SPLINE
  5
2a9
100
AcDbEntity
  8
0
 62
7
100
AcDbSpline
 70
8
 71
3
 72
8
 73
4
 74
0
 40
0
 40
0
 40
0
 40
0
 40
1
 40
1
 40
1
 40
1
 10
41.073018
 20
197.352804
 30
0.0
 10
41.073018
 20
197.487852
 30
0.0
 10
41.087487
 20
197.624966
 30
0.0
 10
41.116427
 20
197.764146
 30
0.0
  0
SPLINE
  5
2aa
100
AcDbEntity
  8
0
 62
7
100
AcDbSpline
 70
8
 71
3
 72
8
 73
4
 74
0
 40
0
 40
0
 40
0
 40
0
 40
1
 40
1
 40
1
 40
1
 10
41.116427
 20
197.764146
 30
0.0
 10
41.145367
 20
197.904707
 30
0.0
 10
41.192220
 20
198.034932
 30
0.0
 10
41.256988
 20
198.154820
 30
0.0
  0
SPLINE
  5
2ab
100
AcDbEntity
  8
0
 62
7
100
AcDbSpline
 70
8
 71
3
 72
8
 73
4
 74
0
 40
0
 40
0
 40
0
 40
0
 40
1
 40
1
 40
1
 40
1
 10
41.256988
 20
198.154820
 30
0.0
 10
41.323134
 20
198.274710
 30
0.0
 10
41.409950
 20
198.371174
 30
0.0
 10
41.517437
 20
198.444211
 30
0.0
  0
SPLINE
  5
2ac
100
AcDbEntity
  8
0
 62
7
100
AcDbSpline
 70
8
 71
3
 72
8
 73
4
 74
0
 40
0
 40
0
 40
0
 40
0
 40
1
 40
1
 40
1
 40
1
 10
41.517437
 20
198.444211
 30
0.0
 10
41.626302
 20
198.517245
 30
0.0
 10
41.759972
 20
198.553762
 30
0.0
 10
41.918447
 20
198.553762
 30
0.0
  0
SPLINE
  5
2ad
100
AcDbEntity
  8
0
 62
7
100
AcDbSpline
 70
8
 71
3
 72
8
 73
4
 74
0
 40
0
 40
0
 40
0
 40
0
 40
1
 40
1
 40
1
 40
1
 10
41.918447
 20
198.553762
 30
0.0
 10
42.202322
 20
198.553762
 30
0.0
 10
42.406272
 20
198.435251
 30
0.0
 10
42.530294
 20
198.198229
 30
0.0
  0
LWPOLYLINE
  5
2ae
100
AcDbEntity
  8
0
 62
7
100
AcDbPolyline
 90
2
 70
0
 10
42.530294
 20
196.284133
 30
0.0
 10
42.530294
 20
196.534246
 30
0.0
  0
SPLINE
  5
2af
100
AcDbEntity
  8
0
 62
7
100
AcDbSpline
 70
8
 71
3
 72
8
 73
4
 74
0
 40
0
 40
0
 40
0
 40
0
 40
1
 40
1
 40
1
 40
1
 10
43.135943
 20
196.352346
 30
0.0
 10
43.135943
 20
195.981654
 30
0.0
 10
43.052571
 20
195.714315
 30
0.0
 10
42.885827
 20
195.550327
 30
0.0
  0
SPLINE
  5
2b0
100
AcDbEntity
  8
0
 62
7
100
AcDbSpline
 70
8
 71
3
 72
8
 73
4
 74
0
 40
0
 40
0
 40
0
 40
0
 40
1
 40
1
 40
1
 40
1
 10
42.885827
 20
195.550327
 30
0.0
 10
42.719086
 20
195.384963
 30
0.0
 10
42.448991
 20
195.302282
 30
0.0
 10
42.075542
 20
195.302282
 30
0.0
  0
LWPOLYLINE
  5
2b1
100
AcDbEntity
  8
0
 62
7
100
AcDbPolyline
 90
4
 70
0
 10
42.530294
 20
198.198229
 30
0.0
 10
42.590238
 20
198.493818
 30
0.0
 10
43.135943
 20
198.493818
 30
0.0
 10
43.135943
 20
196.352346
 30
0.0
  0
SPLINE
  5
2b2
100
AcDbEntity
  8
0
 62
7
100
AcDbSpline
 70
8
 71
3
 72
8
 73
4
 74
0
 40
0
 40
0
 40
0
 40
0
 40
1
 40
1
 40
1
 40
1
 10
42.102424
 20
196.687210
 30
0.0
 10
42.227825
 20
196.687210
 30
0.0
 10
42.330489
 20
196.751289
 30
0.0
 10
42.410417
 20
196.879446
 30
0.0
  0
SPLINE
  5
2b3
100
AcDbEntity
  8
0
 62
7
100
AcDbSpline
 70
8
 71
3
 72
8
 73
4
 74
0
 40
0
 40
0
 40
0
 40
0
 40
1
 40
1
 40
1
 40
1
 10
42.410417
 20
196.879446
 30
0.0
 10
42.490342
 20
197.007603
 30
0.0
 10
42.530305
 20
197.172279
 30
0.0
 10
42.530305
 20
197.373473
 30
0.0
  0
SPLINE
  5
2b4
100
AcDbEntity
  8
0
 62
7
100
AcDbSpline
 70
8
 71
3
 72
8
 73
4
 74
0
 40
0
 40
0
 40
0
 40
0
 40
1
 40
1
 40
1
 40
1
 10
42.530305
 20
197.373473
 30
0.0
 10
42.530305
 20
197.574667
 30
0.0
 10
42.490342
 20
197.738653
 30
0.0
 10
42.410417
 20
197.865433
 30
0.0
  0
SPLINE
  5
2b5
100
AcDbEntity
  8
0
 62
7
100
AcDbSpline
 70
8
 71
3
 72
8
 73
4
 74
0
 40
0
 40
0
 40
0
 40
0
 40
1
 40
1
 40
1
 40
1
 10
42.410417
 20
197.865433
 30
0.0
 10
42.331867
 20
197.993590
 30
0.0
 10
42.229892
 20
198.057668
 30
0.0
 10
42.104491
 20
198.057668
 30
0.0
  0
SPLINE
  5
2b6
100
AcDbEntity
  8
0
 62
7
100
AcDbSpline
 70
8
 71
3
 72
8
 73
4
 74
0
 40
0
 40
0
 40
0
 40
0
 40
1
 40
1
 40
1
 40
1
 10
42.104491
 20
198.057668
 30
0.0
 10
41.979090
 20
198.057668
 30
0.0
 10
41.876426
 20
197.993590
 30
0.0
 10
41.796498
 20
197.865433
 30
0.0
  0
SPLINE
  5
2b7
100
AcDbEntity
  8
0
 62
7
100
AcDbSpline
 70
8
 71
3
 72
8
 73
4
 74
0
 40
0
 40
0
 40
0
 40
0
 40
1
 40
1
 40
1
 40
1
 10
41.796498
 20
197.865433
 30
0.0
 10
41.717951
 20
197.738653
 30
0.0
 10
41.678678
 20
197.574667
 30
0.0
 10
41.678678
 20
197.373473
 30
0.0
  0
SPLINE
  5
2b8
100
AcDbEntity
  8
0
 62
7
100
AcDbSpline
 70
8
 71
3
 72
8
 73
4
 74
0
 40
0
 40
0
 40
0
 40
0
 40
1
 40
1
 40
1
 40
1
 10
41.678678
 20
197.373473
 30
0.0
 10
41.678678
 20
197.172279
 30
0.0
 10
41.717951
 20
197.007603
 30
0.0
 10
41.796498
 20
196.879446
 30
0.0
  0
SPLINE
  5
2b9
100
AcDbEntity
  8
0
 62
7
100
AcDbSpline
 70
8
 71
3
 72
8
 73
4
 74
0
 40
0
 40
0
 40
0
 40
0
 40
1
 40
1
 40
1
 40
1
 10
41.796498
 20
196.879446
 30
0.0
 10
41.875048
 20
196.751289
 30
0.0
 10
41.977023
 20
196.687210
 30
0.0
 10
42.102424
 20
196.687210
 30
0.0
  0
LWPOLYLINE
  5
2ba
100
AcDbEntity
  8
0
 62
7
100
AcDbPolyline
 90
1
 70
1
 10
42.075542
 20
195.302282
 30
0.0
  0
LWPOLYLINE
  5
2bb
100
AcDbEntity
  8
0
 62
7
100
AcDbPolyline
 90
1
 70
1
 10
42.102424
 20
196.687210
 30
0.0
  0
LWPOLYLINE
  5
2bc
100
AcDbEntity
  8
0
 62
7
100
AcDbPolyline
 90
11
 70
1
 10
46.356429
 20
196.716138
 30
0.0
 10
47.038561
 20
196.716138
 30
0.0
 10
47.038561
 20
198.636436
 30
0.0
 10
46.575540
 20
198.134140
 30
0.0
 10
46.286152
 20
198.435931
 30
0.0
 10
47.042695
 20
199.264822
 30
0.0
 10
47.631806
 20
199.264822
 30
0.0
 10
47.631806
 20
196.716138
 30
0.0
 10
48.313934
 20
196.716138
 30
0.0
 10
48.313934
 20
196.178702
 30
0.0
 10
46.356429
 20
196.178702
 30
0.0
  0
SPLINE
  5
2bd
100
AcDbEntity
  8
0
 62
7
100
AcDbSpline
 70
8
 71
3
 72
8
 73
4
 74
0
 40
0
 40
0
 40
0
 40
0
 40
1
 40
1
 40
1
 40
1
 10
52.396377
 20
196.114624
 30
0.0
 10
52.215853
 20
196.114624
 30
0.0
 10
52.058756
 20
196.144940
 30
0.0
 10
51.925086
 20
196.205573
 30
0.0
  0
SPLINE
  5
2be
100
AcDbEntity
  8
0
 62
7
100
AcDbSpline
 70
8
 71
3
 72
8
 73
4
 74
0
 40
0
 40
0
 40
0
 40
0
 40
1
 40
1
 40
1
 40
1
 10
51.925086
 20
196.205573
 30
0.0
 10
51.792795
 20
196.267587
 30
0.0
 10
51.682551
 20
196.364050
 30
0.0
 10
51.594357
 20
196.494964
 30
0.0
  0
SPLINE
  5
2bf
100
AcDbEntity
  8
0
 62
7
100
AcDbSpline
 70
8
 71
3
 72
8
 73
4
 74
0
 40
0
 40
0
 40
0
 40
0
 40
1
 40
1
 40
1
 40
1
 10
51.594357
 20
196.494964
 30
0.0
 10
51.503406
 20
196.628634
 30
0.0
 10
51.437260
 20
196.794688
 30
0.0
 10
51.395919
 20
196.993125
 30
0.0
  0
SPLINE
  5
2c0
100
AcDbEntity
  8
0
 62
7
100
AcDbSpline
 70
8
 71
3
 72
8
 73
4
 74
0
 40
0
 40
0
 40
0
 40
0
 40
1
 40
1
 40
1
 40
1
 10
51.395919
 20
196.993125
 30
0.0
 10
51.355957
 20
197.191563
 30
0.0
 10
51.335975
 20
197.418939
 30
0.0
 10
51.335975
 20
197.675253
 30
0.0
  0
SPLINE
  5
2c1
100
AcDbEntity
  8
0
 62
7
100
AcDbSpline
 70
8
 71
3
 72
8
 73
4
 74
0
 40
0
 40
0
 40
0
 40
0
 40
1
 40
1
 40
1
 40
1
 10
51.335975
 20
197.675253
 30
0.0
 10
51.335975
 20
197.948106
 30
0.0
 10
51.360091
 20
198.187885
 30
0.0
 10
51.408323
 20
198.394589
 30
0.0
  0
SPLINE
  5
2c2
100
AcDbEntity
  8
0
 62
7
100
AcDbSpline
 70
8
 71
3
 72
8
 73
4
 74
0
 40
0
 40
0
 40
0
 40
0
 40
1
 40
1
 40
1
 40
1
 10
51.408323
 20
198.394589
 30
0.0
 10
51.456552
 20
198.602674
 30
0.0
 10
51.536478
 20
198.777685
 30
0.0
 10
51.648099
 20
198.919621
 30
0.0
  0
SPLINE
  5
2c3
100
AcDbEntity
  8
0
 62
7
100
AcDbSpline
 70
8
 71
3
 72
8
 73
4
 74
0
 40
0
 40
0
 40
0
 40
0
 40
1
 40
1
 40
1
 40
1
 10
51.648099
 20
198.919621
 30
0.0
 10
51.857562
 20
199.184205
 30
0.0
 10
52.166932
 20
199.316497
 30
0.0
 10
52.576209
 20
199.316497
 30
0.0
  0
SPLINE
  5
2c4
100
AcDbEntity
  8
0
 62
7
100
AcDbSpline
 70
8
 71
3
 72
8
 73
4
 74
0
 40
0
 40
0
 40
0
 40
0
 40
1
 40
1
 40
1
 40
1
 10
52.576209
 20
199.316497
 30
0.0
 10
52.685074
 20
199.316497
 30
0.0
 10
52.787738
 20
199.306160
 30
0.0
 10
52.884201
 20
199.285487
 30
0.0
  0
SPLINE
  5
2c5
100
AcDbEntity
  8
0
 62
7
100
AcDbSpline
 70
8
 71
3
 72
8
 73
4
 74
0
 40
0
 40
0
 40
0
 40
0
 40
1
 40
1
 40
1
 40
1
 10
52.884201
 20
199.285487
 30
0.0
 10
52.986175
 20
199.264815
 30
0.0
 10
53.089529
 20
199.233809
 30
0.0
 10
53.194262
 20
199.192470
 30
0.0
  0
LWPOLYLINE
  5
2c6
100
AcDbEntity
  8
0
 62
7
100
AcDbPolyline
 90
4
 70
1
 10
50.374793
 20
199.264822
 30
0.0
 10
50.831612
 20
199.264822
 30
0.0
 10
49.206904
 20
195.785961
 30
0.0
 10
48.750084
 20
195.785961
 30
0.0
  0
SPLINE
  5
2c7
100
AcDbEntity
  8
0
 62
7
100
AcDbSpline
 70
8
 71
3
 72
8
 73
4
 74
0
 40
0
 40
0
 40
0
 40
0
 40
1
 40
1
 40
1
 40
1
 10
53.194262
 20
198.638500
 30
0.0
 10
53.089529
 20
198.700511
 30
0.0
 10
52.985486
 20
198.747365
 30
0.0
 10
52.882134
 20
198.779060
 30
0.0
  0
SPLINE
  5
2c8
100
AcDbEntity
  8
0
 62
7
100
AcDbSpline
 70
8
 71
3
 72
8
 73
4
 74
0
 40
0
 40
0
 40
0
 40
0
 40
1
 40
1
 40
1
 40
1
 10
52.882134
 20
198.779060
 30
0.0
 10
52.785671
 20
198.809376
 30
0.0
 10
52.688519
 20
198.824534
 30
0.0
 10
52.590680
 20
198.824534
 30
0.0
  0
SPLINE
  5
2c9
100
AcDbEntity
  8
0
 62
7
100
AcDbSpline
 70
8
 71
3
 72
8
 73
4
 74
0
 40
0
 40
0
 40
0
 40
0
 40
1
 40
1
 40
1
 40
1
 10
52.590680
 20
198.824534
 30
0.0
 10
52.151085
 20
198.824534
 30
0.0
 10
51.923709
 20
198.531701
 30
0.0
 10
51.908552
 20
197.946035
 30
0.0
  0
SPLINE
  5
2ca
100
AcDbEntity
  8
0
 62
7
100
AcDbSpline
 70
8
 71
3
 72
8
 73
4
 74
0
 40
0
 40
0
 40
0
 40
0
 40
1
 40
1
 40
1
 40
1
 10
51.908552
 20
197.946035
 30
0.0
 10
51.976073
 20
198.039742
 30
0.0
 10
52.058755
 20
198.107267
 30
0.0
 10
52.156597
 20
198.148607
 30
0.0
  0
SPLINE
  5
2cb
100
AcDbEntity
  8
0
 62
7
100
AcDbSpline
 70
8
 71
3
 72
8
 73
4
 74
0
 40
0
 40
0
 40
0
 40
0
 40
1
 40
1
 40
1
 40
1
 10
52.156597
 20
198.148607
 30
0.0
 10
52.200694
 20
198.167893
 30
0.0
 10
52.252370
 20
198.183739
 30
0.0
 10
52.311625
 20
198.196148
 30
0.0
  0
SPLINE
  5
2cc
100
AcDbEntity
  8
0
 62
7
100
AcDbSpline
 70
8
 71
3
 72
8
 73
4
 74
0
 40
0
 40
0
 40
0
 40
0
 40
1
 40
1
 40
1
 40
1
 10
52.311625
 20
198.196148
 30
0.0
 10
52.372261
 20
198.208542
 30
0.0
 10
52.440474
 20
198.214739
 30
0.0
 10
52.516265
 20
198.214739
 30
0.0
  0
SPLINE
  5
2cd
100
AcDbEntity
  8
0
 62
7
100
AcDbSpline
 70
8
 71
3
 72
8
 73
4
 74
0
 40
0
 40
0
 40
0
 40
0
 40
1
 40
1
 40
1
 40
1
 10
52.516265
 20
198.214739
 30
0.0
 10
52.794630
 20
198.214739
 30
0.0
 10
53.008226
 20
198.127923
 30
0.0
 10
53.157054
 20
197.954290
 30
0.0
  0
SPLINE
  5
2ce
100
AcDbEntity
  8
0
 62
7
100
AcDbSpline
 70
8
 71
3
 72
8
 73
4
 74
0
 40
0
 40
0
 40
0
 40
0
 40
1
 40
1
 40
1
 40
1
 10
53.157054
 20
197.954290
 30
0.0
 10
53.308638
 20
197.779277
 30
0.0
 10
53.384430
 20
197.528473
 30
0.0
 10
53.384430
 20
197.201878
 30
0.0
  0
SPLINE
  5
2cf
100
AcDbEntity
  8
0
 62
7
100
AcDbSpline
 70
8
 71
3
 72
8
 73
4
 74
0
 40
0
 40
0
 40
0
 40
0
 40
1
 40
1
 40
1
 40
1
 10
53.384430
 20
197.201878
 30
0.0
 10
53.384430
 20
197.035137
 30
0.0
 10
53.363071
 20
196.882863
 30
0.0
 10
53.320352
 20
196.745059
 30
0.0
  0
SPLINE
  5
2d0
100
AcDbEntity
  8
0
 62
7
100
AcDbSpline
 70
8
 71
3
 72
8
 73
4
 74
0
 40
0
 40
0
 40
0
 40
0
 40
1
 40
1
 40
1
 40
1
 10
53.320352
 20
196.745059
 30
0.0
 10
53.279011
 20
196.608633
 30
0.0
 10
53.215621
 20
196.492878
 30
0.0
 10
53.130183
 20
196.397795
 30
0.0
  0
SPLINE
  5
2d1
100
AcDbEntity
  8
0
 62
7
100
AcDbSpline
 70
8
 71
3
 72
8
 73
4
 74
0
 40
0
 40
0
 40
0
 40
0
 40
1
 40
1
 40
1
 40
1
 10
53.130183
 20
196.397795
 30
0.0
 10
52.959304
 20
196.209002
 30
0.0
 10
52.714702
 20
196.114606
 30
0.0
 10
52.396377
 20
196.114606
 30
0.0
  0
LWPOLYLINE
  5
2d2
100
AcDbEntity
  8
0
 62
7
100
AcDbPolyline
 90
2
 70
0
 10
53.194262
 20
199.192470
 30
0.0
 10
53.194262
 20
198.638500
 30
0.0
  0
SPLINE
  5
2d3
100
AcDbEntity
  8
0
 62
7
100
AcDbSpline
 70
8
 71
3
 72
8
 73
4
 74
0
 40
0
 40
0
 40
0
 40
0
 40
1
 40
1
 40
1
 40
1
 10
52.394260
 20
196.606583
 30
0.0
 10
52.456271
 20
196.606583
 30
0.0
 10
52.513460
 20
196.617601
 30
0.0
 10
52.565826
 20
196.639638
 30
0.0
  0
SPLINE
  5
2d4
100
AcDbEntity
  8
0
 62
7
100
AcDbSpline
 70
8
 71
3
 72
8
 73
4
 74
0
 40
0
 40
0
 40
0
 40
0
 40
1
 40
1
 40
1
 40
1
 10
52.565826
 20
196.639638
 30
0.0
 10
52.618190
 20
196.663063
 30
0.0
 10
52.662977
 20
196.700270
 30
0.0
 10
52.700185
 20
196.751261
 30
0.0
  0
SPLINE
  5
2d5
100
AcDbEntity
  8
0
 62
7
100
AcDbSpline
 70
8
 71
3
 72
8
 73
4
 74
0
 40
0
 40
0
 40
0
 40
0
 40
1
 40
1
 40
1
 40
1
 10
52.700185
 20
196.751261
 30
0.0
 10
52.770464
 20
196.846346
 30
0.0
 10
52.805603
 20
196.984150
 30
0.0
 10
52.805603
 20
197.164671
 30
0.0
  0
SPLINE
  5
2d6
100
AcDbEntity
  8
0
 62
7
100
AcDbSpline
 70
8
 71
3
 72
8
 73
4
 74
0
 40
0
 40
0
 40
0
 40
0
 40
1
 40
1
 40
1
 40
1
 10
52.805603
 20
197.164671
 30
0.0
 10
52.805603
 20
197.345194
 30
0.0
 10
52.770464
 20
197.483688
 30
0.0
 10
52.700185
 20
197.580152
 30
0.0
  0
SPLINE
  5
2d7
100
AcDbEntity
  8
0
 62
7
100
AcDbSpline
 70
8
 71
3
 72
8
 73
4
 74
0
 40
0
 40
0
 40
0
 40
0
 40
1
 40
1
 40
1
 40
1
 10
52.700185
 20
197.580152
 30
0.0
 10
52.629905
 20
197.676613
 30
0.0
 10
52.527241
 20
197.724843
 30
0.0
 10
52.392193
 20
197.724843
 30
0.0
  0
SPLINE
  5
2d8
100
AcDbEntity
  8
0
 62
7
100
AcDbSpline
 70
8
 71
3
 72
8
 73
4
 74
0
 40
0
 40
0
 40
0
 40
0
 40
1
 40
1
 40
1
 40
1
 10
52.392193
 20
197.724843
 30
0.0
 10
52.323290
 20
197.724843
 30
0.0
 10
52.264034
 20
197.712442
 30
0.0
 10
52.214424
 20
197.687639
 30
0.0
  0
SPLINE
  5
2d9
100
AcDbEntity
  8
0
 62
7
100
AcDbSpline
 70
8
 71
3
 72
8
 73
4
 74
0
 40
0
 40
0
 40
0
 40
0
 40
1
 40
1
 40
1
 40
1
 10
52.214424
 20
197.687639
 30
0.0
 10
52.166192
 20
197.662834
 30
0.0
 10
52.125541
 20
197.627694
 30
0.0
 10
52.092469
 20
197.582219
 30
0.0
  0
SPLINE
  5
2da
100
AcDbEntity
  8
0
 62
7
100
AcDbSpline
 70
8
 71
3
 72
8
 73
4
 74
0
 40
0
 40
0
 40
0
 40
0
 40
1
 40
1
 40
1
 40
1
 10
52.092469
 20
197.582219
 30
0.0
 10
52.022188
 20
197.484377
 30
0.0
 10
51.987048
 20
197.345883
 30
0.0
 10
51.987048
 20
197.166738
 30
0.0
  0
SPLINE
  5
2db
100
AcDbEntity
  8
0
 62
7
100
AcDbSpline
 70
8
 71
3
 72
8
 73
4
 74
0
 40
0
 40
0
 40
0
 40
0
 40
1
 40
1
 40
1
 40
1
 10
51.987048
 20
197.166738
 30
0.0
 10
51.987048
 20
197.071655
 30
0.0
 10
51.996009
 20
196.989662
 30
0.0
 10
52.013930
 20
196.920760
 30
0.0
  0
SPLINE
  5
2dc
100
AcDbEntity
  8
0
 62
7
100
AcDbSpline
 70
8
 71
3
 72
8
 73
4
 74
0
 40
0
 40
0
 40
0
 40
0
 40
1
 40
1
 40
1
 40
1
 10
52.013930
 20
196.920760
 30
0.0
 10
52.033215
 20
196.851858
 30
0.0
 10
52.059398
 20
196.794669
 30
0.0
 10
52.092479
 20
196.749194
 30
0.0
  0
SPLINE
  5
2dd
100
AcDbEntity
  8
0
 62
7
100
AcDbSpline
 70
8
 71
3
 72
8
 73
4
 74
0
 40
0
 40
0
 40
0
 40
0
 40
1
 40
1
 40
1
 40
1
 10
52.092479
 20
196.749194
 30
0.0
 10
52.128308
 20
196.699584
 30
0.0
 10
52.171716
 20
196.663065
 30
0.0
 10
52.222704
 20
196.639638
 30
0.0
  0
SPLINE
  5
2de
100
AcDbEntity
  8
0
 62
7
100
AcDbSpline
 70
8
 71
3
 72
8
 73
4
 74
0
 40
0
 40
0
 40
0
 40
0
 40
1
 40
1
 40
1
 40
1
 10
52.222704
 20
196.639638
 30
0.0
 10
52.275070
 20
196.617601
 30
0.0
 10
52.332259
 20
196.606583
 30
0.0
 10
52.394270
 20
196.606583
 30
0.0
  0
LWPOLYLINE
  5
2df
100
AcDbEntity
  8
0
 62
7
100
AcDbPolyline
 90
1
 70
1
 10
52.396377
 20
196.114606
 30
0.0
  0
LWPOLYLINE
  5
2e0
100
AcDbEntity
  8
0
 62
7
100
AcDbPolyline
 90
1
 70
1
 10
52.394270
 20
196.606583
 30
0.0
  0
SPLINE
  5
2e1
100
AcDbEntity
  8
0
 62
7
100
AcDbSpline
 70
8
 71
3
 72
8
 73
4
 74
0
 40
0
 40
0
 40
0
 40
0
 40
1
 40
1
 40
1
 40
1
 10
56.400220
 20
196.625189
 30
0.0
 10
56.400220
 20
196.672042
 30
0.0
 10
56.417445
 20
196.714761
 30
0.0
 10
56.451895
 20
196.753346
 30
0.0
  0
LWPOLYLINE
  5
2e2
100
AcDbEntity
  8
0
 62
7
100
AcDbPolyline
 90
4
 70
1
 10
55.472110
 20
199.264822
 30
0.0
 10
55.928930
 20
199.264822
 30
0.0
 10
54.304221
 20
195.785961
 30
0.0
 10
53.847402
 20
195.785961
 30
0.0
  0
SPLINE
  5
2e3
100
AcDbEntity
  8
0
 62
7
100
AcDbSpline
 70
8
 71
3
 72
8
 73
4
 74
0
 40
0
 40
0
 40
0
 40
0
 40
1
 40
1
 40
1
 40
1
 10
56.730949
 20
197.051002
 30
0.0
 10
56.883911
 20
197.216366
 30
0.0
 10
57.005179
 20
197.346590
 30
0.0
 10
57.094752
 20
197.441676
 30
0.0
  0
SPLINE
  5
2e4
100
AcDbEntity
  8
0
 62
7
100
AcDbSpline
 70
8
 71
3
 72
8
 73
4
 74
0
 40
0
 40
0
 40
0
 40
0
 40
1
 40
1
 40
1
 40
1
 10
57.094752
 20
197.441676
 30
0.0
 10
57.184324
 20
197.536761
 30
0.0
 10
57.254603
 20
197.612553
 30
0.0
 10
57.305589
 20
197.669052
 30
0.0
  0
SPLINE
  5
2e5
100
AcDbEntity
  8
0
 62
7
100
AcDbSpline
 70
8
 71
3
 72
8
 73
4
 74
0
 40
0
 40
0
 40
0
 40
0
 40
1
 40
1
 40
1
 40
1
 10
57.305589
 20
197.669052
 30
0.0
 10
57.356578
 20
197.725552
 30
0.0
 10
57.403431
 20
197.777229
 30
0.0
 10
57.446150
 20
197.824080
 30
0.0
  0
SPLINE
  5
2e6
100
AcDbEntity
  8
0
 62
7
100
AcDbSpline
 70
8
 71
3
 72
8
 73
4
 74
0
 40
0
 40
0
 40
0
 40
0
 40
1
 40
1
 40
1
 40
1
 10
57.446150
 20
197.824080
 30
0.0
 10
57.497138
 20
197.883337
 30
0.0
 10
57.541236
 20
197.937082
 30
0.0
 10
57.578442
 20
197.985314
 30
0.0
  0
SPLINE
  5
2e7
100
AcDbEntity
  8
0
 62
7
100
AcDbSpline
 70
8
 71
3
 72
8
 73
4
 74
0
 40
0
 40
0
 40
0
 40
0
 40
1
 40
1
 40
1
 40
1
 10
57.578442
 20
197.985314
 30
0.0
 10
57.615648
 20
198.034921
 30
0.0
 10
57.645965
 20
198.085219
 30
0.0
 10
57.669392
 20
198.136207
 30
0.0
  0
SPLINE
  5
2e8
100
AcDbEntity
  8
0
 62
7
100
AcDbSpline
 70
8
 71
3
 72
8
 73
4
 74
0
 40
0
 40
0
 40
0
 40
0
 40
1
 40
1
 40
1
 40
1
 10
57.669392
 20
198.136207
 30
0.0
 10
57.714867
 20
198.228536
 30
0.0
 10
57.737605
 20
198.321554
 30
0.0
 10
57.737605
 20
198.415262
 30
0.0
  0
SPLINE
  5
2e9
100
AcDbEntity
  8
0
 62
7
100
AcDbSpline
 70
8
 71
3
 72
8
 73
4
 74
0
 40
0
 40
0
 40
0
 40
0
 40
1
 40
1
 40
1
 40
1
 10
57.737605
 20
198.415262
 30
0.0
 10
57.737605
 20
198.547553
 30
0.0
 10
57.695575
 20
198.651595
 30
0.0
 10
57.611515
 20
198.727386
 30
0.0
  0
SPLINE
  5
2ea
100
AcDbEntity
  8
0
 62
7
100
AcDbSpline
 70
8
 71
3
 72
8
 73
4
 74
0
 40
0
 40
0
 40
0
 40
0
 40
1
 40
1
 40
1
 40
1
 10
57.611515
 20
198.727386
 30
0.0
 10
57.527455
 20
198.803179
 30
0.0
 10
57.409633
 20
198.841075
 30
0.0
 10
57.258049
 20
198.841075
 30
0.0
  0
SPLINE
  5
2eb
100
AcDbEntity
  8
0
 62
7
100
AcDbSpline
 70
8
 71
3
 72
8
 73
4
 74
0
 40
0
 40
0
 40
0
 40
0
 40
1
 40
1
 40
1
 40
1
 10
57.258049
 20
198.841075
 30
0.0
 10
57.143671
 20
198.841075
 30
0.0
 10
57.021715
 20
198.819716
 30
0.0
 10
56.892179
 20
198.776997
 30
0.0
  0
SPLINE
  5
2ec
100
AcDbEntity
  8
0
 62
7
100
AcDbSpline
 70
8
 71
3
 72
8
 73
4
 74
0
 40
0
 40
0
 40
0
 40
0
 40
1
 40
1
 40
1
 40
1
 10
56.892179
 20
198.776997
 30
0.0
 10
56.824655
 20
198.754960
 30
0.0
 10
56.755064
 20
198.728088
 30
0.0
 10
56.683405
 20
198.696380
 30
0.0
  0
SPLINE
  5
2ed
100
AcDbEntity
  8
0
 62
7
100
AcDbSpline
 70
8
 71
3
 72
8
 73
4
 74
0
 40
0
 40
0
 40
0
 40
0
 40
1
 40
1
 40
1
 40
1
 10
56.683405
 20
198.696380
 30
0.0
 10
56.613125
 20
198.666062
 30
0.0
 10
56.540778
 20
198.629544
 30
0.0
 10
56.466366
 20
198.586825
 30
0.0
  0
LWPOLYLINE
  5
2ee
100
AcDbEntity
  8
0
 62
7
100
AcDbPolyline
 90
2
 70
0
 10
56.451895
 20
196.753346
 30
0.0
 10
56.730949
 20
197.051002
 30
0.0
  0
SPLINE
  5
2ef
100
AcDbEntity
  8
0
 62
7
100
AcDbSpline
 70
8
 71
3
 72
8
 73
4
 74
0
 40
0
 40
0
 40
0
 40
0
 40
1
 40
1
 40
1
 40
1
 10
56.466366
 20
199.155266
 30
0.0
 10
56.549047
 20
199.185584
 30
0.0
 10
56.627596
 20
199.211078
 30
0.0
 10
56.702011
 20
199.231749
 30
0.0
  0
SPLINE
  5
2f0
100
AcDbEntity
  8
0
 62
7
100
AcDbSpline
 70
8
 71
3
 72
8
 73
4
 74
0
 40
0
 40
0
 40
0
 40
0
 40
1
 40
1
 40
1
 40
1
 10
56.702011
 20
199.231749
 30
0.0
 10
56.776424
 20
199.252422
 30
0.0
 10
56.842569
 20
199.268268
 30
0.0
 10
56.900448
 20
199.279289
 30
0.0
  0
SPLINE
  5
2f1
100
AcDbEntity
  8
0
 62
7
100
AcDbSpline
 70
8
 71
3
 72
8
 73
4
 74
0
 40
0
 40
0
 40
0
 40
0
 40
1
 40
1
 40
1
 40
1
 10
56.900448
 20
199.279289
 30
0.0
 10
57.042385
 20
199.306850
 30
0.0
 10
57.180189
 20
199.320631
 30
0.0
 10
57.313858
 20
199.320631
 30
0.0
  0
SPLINE
  5
2f2
100
AcDbEntity
  8
0
 62
7
100
AcDbSpline
 70
8
 71
3
 72
8
 73
4
 74
0
 40
0
 40
0
 40
0
 40
0
 40
1
 40
1
 40
1
 40
1
 10
57.313858
 20
199.320631
 30
0.0
 10
57.464064
 20
199.320631
 30
0.0
 10
57.603935
 20
199.302028
 30
0.0
 10
57.733470
 20
199.264822
 30
0.0
  0
SPLINE
  5
2f3
100
AcDbEntity
  8
0
 62
7
100
AcDbSpline
 70
8
 71
3
 72
8
 73
4
 74
0
 40
0
 40
0
 40
0
 40
0
 40
1
 40
1
 40
1
 40
1
 10
57.733470
 20
199.264822
 30
0.0
 10
57.864384
 20
199.228994
 30
0.0
 10
57.978761
 20
199.171805
 30
0.0
 10
58.076603
 20
199.093255
 30
0.0
  0
SPLINE
  5
2f4
100
AcDbEntity
  8
0
 62
7
100
AcDbSpline
 70
8
 71
3
 72
8
 73
4
 74
0
 40
0
 40
0
 40
0
 40
0
 40
1
 40
1
 40
1
 40
1
 10
58.076603
 20
199.093255
 30
0.0
 10
58.164798
 20
199.021597
 30
0.0
 10
58.233011
 20
198.934091
 30
0.0
 10
58.281243
 20
198.830739
 30
0.0
  0
SPLINE
  5
2f5
100
AcDbEntity
  8
0
 62
7
100
AcDbSpline
 70
8
 71
3
 72
8
 73
4
 74
0
 40
0
 40
0
 40
0
 40
0
 40
1
 40
1
 40
1
 40
1
 10
58.281243
 20
198.830739
 30
0.0
 10
58.330853
 20
198.727387
 30
0.0
 10
58.355658
 20
198.604052
 30
0.0
 10
58.355658
 20
198.460735
 30
0.0
  0
SPLINE
  5
2f6
100
AcDbEntity
  8
0
 62
7
100
AcDbSpline
 70
8
 71
3
 72
8
 73
4
 74
0
 40
0
 40
0
 40
0
 40
0
 40
1
 40
1
 40
1
 40
1
 10
58.355658
 20
198.460735
 30
0.0
 10
58.355658
 20
198.347735
 30
0.0
 10
58.334986
 20
198.236803
 30
0.0
 10
58.293643
 20
198.127938
 30
0.0
  0
SPLINE
  5
2f7
100
AcDbEntity
  8
0
 62
7
100
AcDbSpline
 70
8
 71
3
 72
8
 73
4
 74
0
 40
0
 40
0
 40
0
 40
0
 40
1
 40
1
 40
1
 40
1
 10
58.293643
 20
198.127938
 30
0.0
 10
58.242657
 20
198.005294
 30
0.0
 10
58.173067
 20
197.887472
 30
0.0
 10
58.084872
 20
197.774472
 30
0.0
  0
SPLINE
  5
2f8
100
AcDbEntity
  8
0
 62
7
100
AcDbSpline
 70
8
 71
3
 72
8
 73
4
 74
0
 40
0
 40
0
 40
0
 40
0
 40
1
 40
1
 40
1
 40
1
 10
58.084872
 20
197.774472
 30
0.0
 10
58.036641
 20
197.713839
 30
0.0
 10
57.966360
 20
197.635291
 30
0.0
 10
57.874031
 20
197.538827
 30
0.0
  0
SPLINE
  5
2f9
100
AcDbEntity
  8
0
 62
7
100
AcDbSpline
 70
8
 71
3
 72
8
 73
4
 74
0
 40
0
 40
0
 40
0
 40
0
 40
1
 40
1
 40
1
 40
1
 10
57.874031
 20
197.538827
 30
0.0
 10
57.781702
 20
197.442363
 30
0.0
 10
57.651478
 20
197.310072
 30
0.0
 10
57.483358
 20
197.141952
 30
0.0
  0
SPLINE
  5
2fa
100
AcDbEntity
  8
0
 62
7
100
AcDbSpline
 70
8
 71
3
 72
8
 73
4
 74
0
 40
0
 40
0
 40
0
 40
0
 40
1
 40
1
 40
1
 40
1
 10
57.483358
 20
197.141952
 30
0.0
 10
57.382762
 20
197.039978
 30
0.0
 10
57.303524
 20
196.964875
 30
0.0
 10
57.245645
 20
196.916643
 30
0.0
  0
SPLINE
  5
2fb
100
AcDbEntity
  8
0
 62
7
100
AcDbSpline
 70
8
 71
3
 72
8
 73
4
 74
0
 40
0
 40
0
 40
0
 40
0
 40
1
 40
1
 40
1
 40
1
 10
57.245645
 20
196.916643
 30
0.0
 10
57.187769
 20
196.869790
 30
0.0
 10
57.140915
 20
196.833960
 30
0.0
 10
57.105084
 20
196.809155
 30
0.0
  0
SPLINE
  5
2fc
100
AcDbEntity
  8
0
 62
7
100
AcDbSpline
 70
8
 71
3
 72
8
 73
4
 74
0
 40
0
 40
0
 40
0
 40
0
 40
1
 40
1
 40
1
 40
1
 10
57.105084
 20
196.809155
 30
0.0
 10
57.069256
 20
196.784350
 30
0.0
 10
57.033428
 20
196.753345
 30
0.0
 10
56.997600
 20
196.716138
 30
0.0
  0
LWPOLYLINE
  5
2fd
100
AcDbEntity
  8
0
 62
7
100
AcDbPolyline
 90
2
 70
0
 10
56.466366
 20
198.586825
 30
0.0
 10
56.466366
 20
199.155266
 30
0.0
  0
SPLINE
  5
2fe
100
AcDbEntity
  8
0
 62
7
100
AcDbSpline
 70
8
 71
3
 72
8
 73
4
 74
0
 40
0
 40
0
 40
0
 40
0
 40
1
 40
1
 40
1
 40
1
 10
59.986565
 20
196.118758
 30
0.0
 10
59.644812
 20
196.118758
 30
0.0
 10
59.389186
 20
196.252428
 30
0.0
 10
59.219685
 20
196.519768
 30
0.0
  0
SPLINE
  5
2ff
100
AcDbEntity
  8
0
 62
7
100
AcDbSpline
 70
8
 71
3
 72
8
 73
4
 74
0
 40
0
 40
0
 40
0
 40
0
 40
1
 40
1
 40
1
 40
1
 10
59.219685
 20
196.519768
 30
0.0
 10
59.050187
 20
196.785730
 30
0.0
 10
58.965438
 20
197.185361
 30
0.0
 10
58.965438
 20
197.718663
 30
0.0
  0
SPLINE
  5
300
100
AcDbEntity
  8
0
 62
7
100
AcDbSpline
 70
8
 71
3
 72
8
 73
4
 74
0
 40
0
 40
0
 40
0
 40
0
 40
1
 40
1
 40
1
 40
1
 10
58.965438
 20
197.718663
 30
0.0
 10
58.965438
 20
198.254718
 30
0.0
 10
59.050187
 20
198.655727
 30
0.0
 10
59.219685
 20
198.921689
 30
0.0
  0
SPLINE
  5
301
100
AcDbEntity
  8
0
 62
7
100
AcDbSpline
 70
8
 71
3
 72
8
 73
4
 74
0
 40
0
 40
0
 40
0
 40
0
 40
1
 40
1
 40
1
 40
1
 10
59.219685
 20
198.921689
 30
0.0
 10
59.389186
 20
199.187650
 30
0.0
 10
59.644123
 20
199.320631
 30
0.0
 10
59.984497
 20
199.320631
 30
0.0
  0
SPLINE
  5
302
100
AcDbEntity
  8
0
 62
7
100
AcDbSpline
 70
8
 71
3
 72
8
 73
4
 74
0
 40
0
 40
0
 40
0
 40
0
 40
1
 40
1
 40
1
 40
1
 10
59.984497
 20
199.320631
 30
0.0
 10
60.326252
 20
199.320631
 30
0.0
 10
60.581879
 20
199.187650
 30
0.0
 10
60.751377
 20
198.921689
 30
0.0
  0
SPLINE
  5
303
100
AcDbEntity
  8
0
 62
7
100
AcDbSpline
 70
8
 71
3
 72
8
 73
4
 74
0
 40
0
 40
0
 40
0
 40
0
 40
1
 40
1
 40
1
 40
1
 10
60.751377
 20
198.921689
 30
0.0
 10
60.920875
 20
198.655727
 30
0.0
 10
61.005624
 20
198.254718
 30
0.0
 10
61.005624
 20
197.718663
 30
0.0
  0
SPLINE
  5
304
100
AcDbEntity
  8
0
 62
7
100
AcDbSpline
 70
8
 71
3
 72
8
 73
4
 74
0
 40
0
 40
0
 40
0
 40
0
 40
1
 40
1
 40
1
 40
1
 10
61.005624
 20
197.718663
 30
0.0
 10
61.005624
 20
196.652060
 30
0.0
 10
60.665937
 20
196.118758
 30
0.0
 10
59.986565
 20
196.118758
 30
0.0
  0
LWPOLYLINE
  5
305
100
AcDbEntity
  8
0
 62
7
100
AcDbPolyline
 90
5
 70
0
 10
56.997600
 20
196.716138
 30
0.0
 10
58.359789
 20
196.716138
 30
0.0
 10
58.359789
 20
196.178702
 30
0.0
 10
56.400220
 20
196.178702
 30
0.0
 10
56.400220
 20
196.625189
 30
0.0
  0
SPLINE
  5
306
100
AcDbEntity
  8
0
 62
7
100
AcDbSpline
 70
8
 71
3
 72
8
 73
4
 74
0
 40
0
 40
0
 40
0
 40
0
 40
1
 40
1
 40
1
 40
1
 10
59.984448
 20
196.635521
 30
0.0
 10
60.126387
 20
196.635521
 30
0.0
 10
60.229740
 20
196.721650
 30
0.0
 10
60.294508
 20
196.893907
 30
0.0
  0
SPLINE
  5
307
100
AcDbEntity
  8
0
 62
7
100
AcDbSpline
 70
8
 71
3
 72
8
 73
4
 74
0
 40
0
 40
0
 40
0
 40
0
 40
1
 40
1
 40
1
 40
1
 10
60.294508
 20
196.893907
 30
0.0
 10
60.359276
 20
197.068917
 30
0.0
 10
60.391660
 20
197.343836
 30
0.0
 10
60.391660
 20
197.718663
 30
0.0
  0
SPLINE
  5
308
100
AcDbEntity
  8
0
 62
7
100
AcDbSpline
 70
8
 71
3
 72
8
 73
4
 74
0
 40
0
 40
0
 40
0
 40
0
 40
1
 40
1
 40
1
 40
1
 10
60.391660
 20
197.718663
 30
0.0
 10
60.391660
 20
198.094868
 30
0.0
 10
60.359276
 20
198.370475
 30
0.0
 10
60.294508
 20
198.545486
 30
0.0
  0
SPLINE
  5
309
100
AcDbEntity
  8
0
 62
7
100
AcDbSpline
 70
8
 71
3
 72
8
 73
4
 74
0
 40
0
 40
0
 40
0
 40
0
 40
1
 40
1
 40
1
 40
1
 10
60.294508
 20
198.545486
 30
0.0
 10
60.229740
 20
198.717741
 30
0.0
 10
60.126387
 20
198.803868
 30
0.0
 10
59.984448
 20
198.803868
 30
0.0
  0
SPLINE
  5
30a
100
AcDbEntity
  8
0
 62
7
100
AcDbSpline
 70
8
 71
3
 72
8
 73
4
 74
0
 40
0
 40
0
 40
0
 40
0
 40
1
 40
1
 40
1
 40
1
 10
59.984448
 20
198.803868
 30
0.0
 10
59.843889
 20
198.803868
 30
0.0
 10
59.741226
 20
198.717741
 30
0.0
 10
59.676459
 20
198.545486
 30
0.0
  0
SPLINE
  5
30b
100
AcDbEntity
  8
0
 62
7
100
AcDbSpline
 70
8
 71
3
 72
8
 73
4
 74
0
 40
0
 40
0
 40
0
 40
0
 40
1
 40
1
 40
1
 40
1
 10
59.676459
 20
198.545486
 30
0.0
 10
59.611691
 20
198.370475
 30
0.0
 10
59.579307
 20
198.094868
 30
0.0
 10
59.579307
 20
197.718663
 30
0.0
  0
SPLINE
  5
30c
100
AcDbEntity
  8
0
 62
7
100
AcDbSpline
 70
8
 71
3
 72
8
 73
4
 74
0
 40
0
 40
0
 40
0
 40
0
 40
1
 40
1
 40
1
 40
1
 10
59.579307
 20
197.718663
 30
0.0
 10
59.579307
 20
197.343836
 30
0.0
 10
59.611691
 20
197.068917
 30
0.0
 10
59.676459
 20
196.893907
 30
0.0
  0
SPLINE
  5
30d
100
AcDbEntity
  8
0
 62
7
100
AcDbSpline
 70
8
 71
3
 72
8
 73
4
 74
0
 40
0
 40
0
 40
0
 40
0
 40
1
 40
1
 40
1
 40
1
 10
59.676459
 20
196.893907
 30
0.0
 10
59.741226
 20
196.721650
 30
0.0
 10
59.843889
 20
196.635521
 30
0.0
 10
59.984448
 20
196.635521
 30
0.0
  0
LWPOLYLINE
  5
30e
100
AcDbEntity
  8
0
 62
7
100
AcDbPolyline
 90
1
 70
1
 10
59.986565
 20
196.118758
 30
0.0
  0
SPLINE
  5
30f
100
AcDbEntity
  8
0
 62
7
100
AcDbSpline
 70
8
 71
3
 72
8
 73
4
 74
0
 40
0
 40
0
 40
0
 40
0
 40
1
 40
1
 40
1
 40
1
 10
59.986565
 20
197.129548
 30
0.0
 10
59.963140
 20
197.129548
 30
0.0
 10
59.945226
 20
197.154353
 30
0.0
 10
59.932822
 20
197.203963
 30
0.0
  0
SPLINE
  5
310
100
AcDbEntity
  8
0
 62
7
100
AcDbSpline
 70
8
 71
3
 72
8
 73
4
 74
0
 40
0
 40
0
 40
0
 40
0
 40
1
 40
1
 40
1
 40
1
 10
59.932822
 20
197.203963
 30
0.0
 10
59.920428
 20
197.254951
 30
0.0
 10
59.910092
 20
197.311451
 30
0.0
 10
59.901813
 20
197.373462
 30
0.0
  0
SPLINE
  5
311
100
AcDbEntity
  8
0
 62
7
100
AcDbSpline
 70
8
 71
3
 72
8
 73
4
 74
0
 40
0
 40
0
 40
0
 40
0
 40
1
 40
1
 40
1
 40
1
 10
59.901813
 20
197.373462
 30
0.0
 10
59.896310
 20
197.425829
 30
0.0
 10
59.890795
 20
197.487840
 30
0.0
 10
59.885268
 20
197.559496
 30
0.0
  0
SPLINE
  5
312
100
AcDbEntity
  8
0
 62
7
100
AcDbSpline
 70
8
 71
3
 72
8
 73
4
 74
0
 40
0
 40
0
 40
0
 40
0
 40
1
 40
1
 40
1
 40
1
 10
59.885268
 20
197.559496
 30
0.0
 10
59.879765
 20
197.632533
 30
0.0
 10
59.877013
 20
197.688344
 30
0.0
 10
59.877013
 20
197.726928
 30
0.0
  0
SPLINE
  5
313
100
AcDbEntity
  8
0
 62
7
100
AcDbSpline
 70
8
 71
3
 72
8
 73
4
 74
0
 40
0
 40
0
 40
0
 40
0
 40
1
 40
1
 40
1
 40
1
 10
59.877013
 20
197.726928
 30
0.0
 10
59.877013
 20
197.753112
 30
0.0
 10
59.878389
 20
197.800654
 30
0.0
 10
59.881140
 20
197.869556
 30
0.0
  0
SPLINE
  5
314
100
AcDbEntity
  8
0
 62
7
100
AcDbSpline
 70
8
 71
3
 72
8
 73
4
 74
0
 40
0
 40
0
 40
0
 40
0
 40
1
 40
1
 40
1
 40
1
 10
59.881140
 20
197.869556
 30
0.0
 10
59.883892
 20
197.939837
 30
0.0
 10
59.889407
 20
198.006672
 30
0.0
 10
59.897686
 20
198.070061
 30
0.0
  0
SPLINE
  5
315
100
AcDbEntity
  8
0
 62
7
100
AcDbSpline
 70
8
 71
3
 72
8
 73
4
 74
0
 40
0
 40
0
 40
0
 40
0
 40
1
 40
1
 40
1
 40
1
 10
59.897686
 20
198.070061
 30
0.0
 10
59.916971
 20
198.231293
 30
0.0
 10
59.945220
 20
198.311908
 30
0.0
 10
59.982434
 20
198.311908
 30
0.0
  0
SPLINE
  5
316
100
AcDbEntity
  8
0
 62
7
100
AcDbSpline
 70
8
 71
3
 72
8
 73
4
 74
0
 40
0
 40
0
 40
0
 40
0
 40
1
 40
1
 40
1
 40
1
 10
59.982434
 20
198.311908
 30
0.0
 10
60.003106
 20
198.311908
 30
0.0
 10
60.021022
 20
198.288482
 30
0.0
 10
60.036179
 20
198.241628
 30
0.0
  0
SPLINE
  5
317
100
AcDbEntity
  8
0
 62
7
100
AcDbSpline
 70
8
 71
3
 72
8
 73
4
 74
0
 40
0
 40
0
 40
0
 40
0
 40
1
 40
1
 40
1
 40
1
 10
60.036179
 20
198.241628
 30
0.0
 10
60.051325
 20
198.196152
 30
0.0
 10
60.063037
 20
198.137585
 30
0.0
 10
60.071316
 20
198.065927
 30
0.0
  0
SPLINE
  5
318
100
AcDbEntity
  8
0
 62
7
100
AcDbSpline
 70
8
 71
3
 72
8
 73
4
 74
0
 40
0
 40
0
 40
0
 40
0
 40
1
 40
1
 40
1
 40
1
 10
60.071316
 20
198.065927
 30
0.0
 10
60.076819
 20
198.008050
 30
0.0
 10
60.081641
 20
197.943971
 30
0.0
 10
60.085780
 20
197.873691
 30
0.0
  0
SPLINE
  5
319
100
AcDbEntity
  8
0
 62
7
100
AcDbSpline
 70
8
 71
3
 72
8
 73
4
 74
0
 40
0
 40
0
 40
0
 40
0
 40
1
 40
1
 40
1
 40
1
 10
60.085780
 20
197.873691
 30
0.0
 10
60.091283
 20
197.804789
 30
0.0
 10
60.094035
 20
197.751735
 30
0.0
 10
60.094035
 20
197.714528
 30
0.0
  0
SPLINE
  5
31a
100
AcDbEntity
  8
0
 62
7
100
AcDbSpline
 70
8
 71
3
 72
8
 73
4
 74
0
 40
0
 40
0
 40
0
 40
0
 40
1
 40
1
 40
1
 40
1
 10
60.094035
 20
197.714528
 30
0.0
 10
60.094035
 20
197.691104
 30
0.0
 10
60.092659
 20
197.645628
 30
0.0
 10
60.089907
 20
197.578102
 30
0.0
  0
SPLINE
  5
31b
100
AcDbEntity
  8
0
 62
7
100
AcDbSpline
 70
8
 71
3
 72
8
 73
4
 74
0
 40
0
 40
0
 40
0
 40
0
 40
1
 40
1
 40
1
 40
1
 10
60.089907
 20
197.578102
 30
0.0
 10
60.088496
 20
197.510578
 30
0.0
 10
60.083675
 20
197.443054
 30
0.0
 10
60.075443
 20
197.375530
 30
0.0
  0
SPLINE
  5
31c
100
AcDbEntity
  8
0
 62
7
100
AcDbSpline
 70
8
 71
3
 72
8
 73
4
 74
0
 40
0
 40
0
 40
0
 40
0
 40
1
 40
1
 40
1
 40
1
 10
60.075443
 20
197.375530
 30
0.0
 10
60.057522
 20
197.211542
 30
0.0
 10
60.027894
 20
197.129548
 30
0.0
 10
59.986557
 20
197.129548
 30
0.0
  0
LWPOLYLINE
  5
31d
100
AcDbEntity
  8
0
 62
7
100
AcDbPolyline
 90
1
 70
1
 10
59.984448
 20
196.635521
 30
0.0
  0
SPLINE
  5
31e
100
AcDbEntity
  8
0
 62
7
100
AcDbSpline
 70
8
 71
3
 72
8
 73
4
 74
0
 40
0
 40
0
 40
0
 40
0
 40
1
 40
1
 40
1
 40
1
 10
61.497587
 20
196.625189
 30
0.0
 10
61.497587
 20
196.672042
 30
0.0
 10
61.514812
 20
196.714761
 30
0.0
 10
61.549262
 20
196.753346
 30
0.0
  0
LWPOLYLINE
  5
31f
100
AcDbEntity
  8
0
 62
7
100
AcDbPolyline
 90
1
 70
1
 10
59.986557
 20
197.129548
 30
0.0
  0
SPLINE
  5
320
100
AcDbEntity
  8
0
 62
7
100
AcDbSpline
 70
8
 71
3
 72
8
 73
4
 74
0
 40
0
 40
0
 40
0
 40
0
 40
1
 40
1
 40
1
 40
1
 10
61.828316
 20
197.051002
 30
0.0
 10
61.981278
 20
197.216366
 30
0.0
 10
62.102546
 20
197.346590
 30
0.0
 10
62.192118
 20
197.441676
 30
0.0
  0
SPLINE
  5
321
100
AcDbEntity
  8
0
 62
7
100
AcDbSpline
 70
8
 71
3
 72
8
 73
4
 74
0
 40
0
 40
0
 40
0
 40
0
 40
1
 40
1
 40
1
 40
1
 10
62.192118
 20
197.441676
 30
0.0
 10
62.281691
 20
197.536761
 30
0.0
 10
62.351970
 20
197.612553
 30
0.0
 10
62.402956
 20
197.669052
 30
0.0
  0
SPLINE
  5
322
100
AcDbEntity
  8
0
 62
7
100
AcDbSpline
 70
8
 71
3
 72
8
 73
4
 74
0
 40
0
 40
0
 40
0
 40
0
 40
1
 40
1
 40
1
 40
1
 10
62.402956
 20
197.669052
 30
0.0
 10
62.453944
 20
197.725552
 30
0.0
 10
62.500798
 20
197.777229
 30
0.0
 10
62.543517
 20
197.824080
 30
0.0
  0
SPLINE
  5
323
100
AcDbEntity
  8
0
 62
7
100
AcDbSpline
 70
8
 71
3
 72
8
 73
4
 74
0
 40
0
 40
0
 40
0
 40
0
 40
1
 40
1
 40
1
 40
1
 10
62.543517
 20
197.824080
 30
0.0
 10
62.594505
 20
197.883337
 30
0.0
 10
62.638603
 20
197.937082
 30
0.0
 10
62.675809
 20
197.985314
 30
0.0
  0
SPLINE
  5
324
100
AcDbEntity
  8
0
 62
7
100
AcDbSpline
 70
8
 71
3
 72
8
 73
4
 74
0
 40
0
 40
0
 40
0
 40
0
 40
1
 40
1
 40
1
 40
1
 10
62.675809
 20
197.985314
 30
0.0
 10
62.713015
 20
198.034921
 30
0.0
 10
62.743332
 20
198.085219
 30
0.0
 10
62.766759
 20
198.136207
 30
0.0
  0
SPLINE
  5
325
100
AcDbEntity
  8
0
 62
7
100
AcDbSpline
 70
8
 71
3
 72
8
 73
4
 74
0
 40
0
 40
0
 40
0
 40
0
 40
1
 40
1
 40
1
 40
1
 10
62.766759
 20
198.136207
 30
0.0
 10
62.812234
 20
198.228536
 30
0.0
 10
62.834972
 20
198.321554
 30
0.0
 10
62.834972
 20
198.415262
 30
0.0
  0
SPLINE
  5
326
100
AcDbEntity
  8
0
 62
7
100
AcDbSpline
 70
8
 71
3
 72
8
 73
4
 74
0
 40
0
 40
0
 40
0
 40
0
 40
1
 40
1
 40
1
 40
1
 10
62.834972
 20
198.415262
 30
0.0
 10
62.834972
 20
198.547553
 30
0.0
 10
62.792942
 20
198.651595
 30
0.0
 10
62.708882
 20
198.727386
 30
0.0
  0
SPLINE
  5
327
100
AcDbEntity
  8
0
 62
7
100
AcDbSpline
 70
8
 71
3
 72
8
 73
4
 74
0
 40
0
 40
0
 40
0
 40
0
 40
1
 40
1
 40
1
 40
1
 10
62.708882
 20
198.727386
 30
0.0
 10
62.624822
 20
198.803179
 30
0.0
 10
62.507000
 20
198.841075
 30
0.0
 10
62.355416
 20
198.841075
 30
0.0
  0
SPLINE
  5
328
100
AcDbEntity
  8
0
 62
7
100
AcDbSpline
 70
8
 71
3
 72
8
 73
4
 74
0
 40
0
 40
0
 40
0
 40
0
 40
1
 40
1
 40
1
 40
1
 10
62.355416
 20
198.841075
 30
0.0
 10
62.241038
 20
198.841075
 30
0.0
 10
62.119082
 20
198.819716
 30
0.0
 10
61.989546
 20
198.776997
 30
0.0
  0
SPLINE
  5
329
100
AcDbEntity
  8
0
 62
7
100
AcDbSpline
 70
8
 71
3
 72
8
 73
4
 74
0
 40
0
 40
0
 40
0
 40
0
 40
1
 40
1
 40
1
 40
1
 10
61.989546
 20
198.776997
 30
0.0
 10
61.922022
 20
198.754960
 30
0.0
 10
61.852431
 20
198.728088
 30
0.0
 10
61.780772
 20
198.696380
 30
0.0
  0
SPLINE
  5
32a
100
AcDbEntity
  8
0
 62
7
100
AcDbSpline
 70
8
 71
3
 72
8
 73
4
 74
0
 40
0
 40
0
 40
0
 40
0
 40
1
 40
1
 40
1
 40
1
 10
61.780772
 20
198.696380
 30
0.0
 10
61.710492
 20
198.666062
 30
0.0
 10
61.638145
 20
198.629544
 30
0.0
 10
61.563733
 20
198.586825
 30
0.0
  0
LWPOLYLINE
  5
32b
100
AcDbEntity
  8
0
 62
7
100
AcDbPolyline
 90
2
 70
0
 10
61.549262
 20
196.753346
 30
0.0
 10
61.828316
 20
197.051002
 30
0.0
  0
SPLINE
  5
32c
100
AcDbEntity
  8
0
 62
7
100
AcDbSpline
 70
8
 71
3
 72
8
 73
4
 74
0
 40
0
 40
0
 40
0
 40
0
 40
1
 40
1
 40
1
 40
1
 10
61.563733
 20
199.155266
 30
0.0
 10
61.646414
 20
199.185584
 30
0.0
 10
61.724962
 20
199.211078
 30
0.0
 10
61.799374
 20
199.231749
 30
0.0
  0
SPLINE
  5
32d
100
AcDbEntity
  8
0
 62
7
100
AcDbSpline
 70
8
 71
3
 72
8
 73
4
 74
0
 40
0
 40
0
 40
0
 40
0
 40
1
 40
1
 40
1
 40
1
 10
61.799374
 20
199.231749
 30
0.0
 10
61.873789
 20
199.252422
 30
0.0
 10
61.939935
 20
199.268268
 30
0.0
 10
61.997812
 20
199.279289
 30
0.0
  0
SPLINE
  5
32e
100
AcDbEntity
  8
0
 62
7
100
AcDbSpline
 70
8
 71
3
 72
8
 73
4
 74
0
 40
0
 40
0
 40
0
 40
0
 40
1
 40
1
 40
1
 40
1
 10
61.997812
 20
199.279289
 30
0.0
 10
62.139751
 20
199.306850
 30
0.0
 10
62.277555
 20
199.320631
 30
0.0
 10
62.411225
 20
199.320631
 30
0.0
  0
SPLINE
  5
32f
100
AcDbEntity
  8
0
 62
7
100
AcDbSpline
 70
8
 71
3
 72
8
 73
4
 74
0
 40
0
 40
0
 40
0
 40
0
 40
1
 40
1
 40
1
 40
1
 10
62.411225
 20
199.320631
 30
0.0
 10
62.561431
 20
199.320631
 30
0.0
 10
62.701302
 20
199.302028
 30
0.0
 10
62.830837
 20
199.264822
 30
0.0
  0
SPLINE
  5
330
100
AcDbEntity
  8
0
 62
7
100
AcDbSpline
 70
8
 71
3
 72
8
 73
4
 74
0
 40
0
 40
0
 40
0
 40
0
 40
1
 40
1
 40
1
 40
1
 10
62.830837
 20
199.264822
 30
0.0
 10
62.961751
 20
199.228994
 30
0.0
 10
63.076128
 20
199.171805
 30
0.0
 10
63.173970
 20
199.093255
 30
0.0
  0
SPLINE
  5
331
100
AcDbEntity
  8
0
 62
7
100
AcDbSpline
 70
8
 71
3
 72
8
 73
4
 74
0
 40
0
 40
0
 40
0
 40
0
 40
1
 40
1
 40
1
 40
1
 10
63.173970
 20
199.093255
 30
0.0
 10
63.262165
 20
199.021597
 30
0.0
 10
63.330378
 20
198.934091
 30
0.0
 10
63.378610
 20
198.830739
 30
0.0
  0
SPLINE
  5
332
100
AcDbEntity
  8
0
 62
7
100
AcDbSpline
 70
8
 71
3
 72
8
 73
4
 74
0
 40
0
 40
0
 40
0
 40
0
 40
1
 40
1
 40
1
 40
1
 10
63.378610
 20
198.830739
 30
0.0
 10
63.428217
 20
198.727387
 30
0.0
 10
63.453021
 20
198.604052
 30
0.0
 10
63.453021
 20
198.460735
 30
0.0
  0
SPLINE
  5
333
100
AcDbEntity
  8
0
 62
7
100
AcDbSpline
 70
8
 71
3
 72
8
 73
4
 74
0
 40
0
 40
0
 40
0
 40
0
 40
1
 40
1
 40
1
 40
1
 10
63.453021
 20
198.460735
 30
0.0
 10
63.453021
 20
198.347735
 30
0.0
 10
63.432351
 20
198.236803
 30
0.0
 10
63.391010
 20
198.127938
 30
0.0
  0
SPLINE
  5
334
100
AcDbEntity
  8
0
 62
7
100
AcDbSpline
 70
8
 71
3
 72
8
 73
4
 74
0
 40
0
 40
0
 40
0
 40
0
 40
1
 40
1
 40
1
 40
1
 10
63.391010
 20
198.127938
 30
0.0
 10
63.340024
 20
198.005294
 30
0.0
 10
63.270434
 20
197.887472
 30
0.0
 10
63.182239
 20
197.774472
 30
0.0
  0
SPLINE
  5
335
100
AcDbEntity
  8
0
 62
7
100
AcDbSpline
 70
8
 71
3
 72
8
 73
4
 74
0
 40
0
 40
0
 40
0
 40
0
 40
1
 40
1
 40
1
 40
1
 10
63.182239
 20
197.774472
 30
0.0
 10
63.134008
 20
197.713839
 30
0.0
 10
63.063727
 20
197.635291
 30
0.0
 10
62.971398
 20
197.538827
 30
0.0
  0
SPLINE
  5
336
100
AcDbEntity
  8
0
 62
7
100
AcDbSpline
 70
8
 71
3
 72
8
 73
4
 74
0
 40
0
 40
0
 40
0
 40
0
 40
1
 40
1
 40
1
 40
1
 10
62.971398
 20
197.538827
 30
0.0
 10
62.879069
 20
197.442363
 30
0.0
 10
62.748845
 20
197.310072
 30
0.0
 10
62.580725
 20
197.141952
 30
0.0
  0
SPLINE
  5
337
100
AcDbEntity
  8
0
 62
7
100
AcDbSpline
 70
8
 71
3
 72
8
 73
4
 74
0
 40
0
 40
0
 40
0
 40
0
 40
1
 40
1
 40
1
 40
1
 10
62.580725
 20
197.141952
 30
0.0
 10
62.480126
 20
197.039978
 30
0.0
 10
62.400889
 20
196.964875
 30
0.0
 10
62.343012
 20
196.916643
 30
0.0
  0
SPLINE
  5
338
100
AcDbEntity
  8
0
 62
7
100
AcDbSpline
 70
8
 71
3
 72
8
 73
4
 74
0
 40
0
 40
0
 40
0
 40
0
 40
1
 40
1
 40
1
 40
1
 10
62.343012
 20
196.916643
 30
0.0
 10
62.285135
 20
196.869790
 30
0.0
 10
62.238282
 20
196.833960
 30
0.0
 10
62.202451
 20
196.809155
 30
0.0
  0
SPLINE
  5
339
100
AcDbEntity
  8
0
 62
7
100
AcDbSpline
 70
8
 71
3
 72
8
 73
4
 74
0
 40
0
 40
0
 40
0
 40
0
 40
1
 40
1
 40
1
 40
1
 10
62.202451
 20
196.809155
 30
0.0
 10
62.166623
 20
196.784350
 30
0.0
 10
62.130795
 20
196.753345
 30
0.0
 10
62.094967
 20
196.716138
 30
0.0
  0
LWPOLYLINE
  5
33a
100
AcDbEntity
  8
0
 62
7
100
AcDbPolyline
 90
2
 70
0
 10
61.563733
 20
198.586825
 30
0.0
 10
61.563733
 20
199.155266
 30
0.0
  0
LWPOLYLINE
  5
33b
100
AcDbEntity
  8
0
 62
7
100
AcDbPolyline
 90
5
 70
0
 10
62.094967
 20
196.716138
 30
0.0
 10
63.457156
 20
196.716138
 30
0.0
 10
63.457156
 20
196.178702
 30
0.0
 10
61.497587
 20
196.178702
 30
0.0
 10
61.497587
 20
196.625189
 30
0.0
  0
LWPOLYLINE
  5
33c
100
AcDbEntity
  8
0
 62
7
100
AcDbPolyline
 90
11
 70
1
 10
65.243094
 20
196.844295
 30
0.0
 10
64.019396
 20
196.844295
 30
0.0
 10
64.019396
 20
197.435474
 30
0.0
 10
65.189352
 20
199.264822
 30
0.0
 10
65.828074
 20
199.264822
 30
0.0
 10
65.828074
 20
197.367261
 30
0.0
 10
66.167069
 20
197.367261
 30
0.0
 10
66.167069
 20
196.844295
 30
0.0
 10
65.828074
 20
196.844295
 30
0.0
 10
65.828074
 20
196.178702
 30
0.0
 10
65.243094
 20
196.178702
 30
0.0
  0
SPLINE
  5
33d
100
AcDbEntity
  8
0
 62
7
100
AcDbSpline
 70
8
 71
3
 72
8
 73
4
 74
0
 40
0
 40
0
 40
0
 40
0
 40
1
 40
1
 40
1
 40
1
 10
70.137889
 20
195.620597
 30
0.0
 10
70.035915
 20
195.768046
 30
0.0
 10
69.943587
 20
195.920319
 30
0.0
 10
69.860905
 20
196.077416
 30
0.0
  0
SPLINE
  5
33e
100
AcDbEntity
  8
0
 62
7
100
AcDbSpline
 70
8
 71
3
 72
8
 73
4
 74
0
 40
0
 40
0
 40
0
 40
0
 40
1
 40
1
 40
1
 40
1
 10
69.860905
 20
196.077416
 30
0.0
 10
69.778221
 20
196.233135
 30
0.0
 10
69.707941
 20
196.395055
 30
0.0
 10
69.650064
 20
196.563177
 30
0.0
  0
SPLINE
  5
33f
100
AcDbEntity
  8
0
 62
7
100
AcDbSpline
 70
8
 71
3
 72
8
 73
4
 74
0
 40
0
 40
0
 40
0
 40
0
 40
1
 40
1
 40
1
 40
1
 10
69.650064
 20
196.563177
 30
0.0
 10
69.543956
 20
196.874612
 30
0.0
 10
69.490901
 20
197.189493
 30
0.0
 10
69.490901
 20
197.507821
 30
0.0
  0
SPLINE
  5
340
100
AcDbEntity
  8
0
 62
7
100
AcDbSpline
 70
8
 71
3
 72
8
 73
4
 74
0
 40
0
 40
0
 40
0
 40
0
 40
1
 40
1
 40
1
 40
1
 10
69.490901
 20
197.507821
 30
0.0
 10
69.490901
 20
197.826149
 30
0.0
 10
69.544645
 20
198.141720
 30
0.0
 10
69.652131
 20
198.454533
 30
0.0
  0
SPLINE
  5
341
100
AcDbEntity
  8
0
 62
7
100
AcDbSpline
 70
8
 71
3
 72
8
 73
4
 74
0
 40
0
 40
0
 40
0
 40
0
 40
1
 40
1
 40
1
 40
1
 10
69.652131
 20
198.454533
 30
0.0
 10
69.704498
 20
198.606119
 30
0.0
 10
69.769265
 20
198.758394
 30
0.0
 10
69.846434
 20
198.911356
 30
0.0
  0
SPLINE
  5
342
100
AcDbEntity
  8
0
 62
7
100
AcDbSpline
 70
8
 71
3
 72
8
 73
4
 74
0
 40
0
 40
0
 40
0
 40
0
 40
1
 40
1
 40
1
 40
1
 10
69.846434
 20
198.911356
 30
0.0
 10
69.924984
 20
199.064318
 30
0.0
 10
70.022136
 20
199.224170
 30
0.0
 10
70.137889
 20
199.390912
 30
0.0
  0
LWPOLYLINE
  5
343
100
AcDbEntity
  8
0
 62
7
100
AcDbPolyline
 90
3
 70
1
 10
65.243094
 20
197.367261
 30
0.0
 10
65.243094
 20
198.586825
 30
0.0
 10
64.463815
 20
197.367261
 30
0.0
  0
SPLINE
  5
344
100
AcDbEntity
  8
0
 62
7
100
AcDbSpline
 70
8
 71
3
 72
8
 73
4
 74
0
 40
0
 40
0
 40
0
 40
0
 40
1
 40
1
 40
1
 40
1
 10
70.609179
 20
199.390912
 30
0.0
 10
70.520985
 20
199.231058
 30
0.0
 10
70.442436
 20
199.071207
 30
0.0
 10
70.373534
 20
198.911356
 30
0.0
  0
SPLINE
  5
345
100
AcDbEntity
  8
0
 62
7
100
AcDbSpline
 70
8
 71
3
 72
8
 73
4
 74
0
 40
0
 40
0
 40
0
 40
0
 40
1
 40
1
 40
1
 40
1
 10
70.373534
 20
198.911356
 30
0.0
 10
70.306010
 20
198.751503
 30
0.0
 10
70.249510
 20
198.592339
 30
0.0
 10
70.204035
 20
198.433864
 30
0.0
  0
SPLINE
  5
346
100
AcDbEntity
  8
0
 62
7
100
AcDbSpline
 70
8
 71
3
 72
8
 73
4
 74
0
 40
0
 40
0
 40
0
 40
0
 40
1
 40
1
 40
1
 40
1
 10
70.204035
 20
198.433864
 30
0.0
 10
70.115840
 20
198.130696
 30
0.0
 10
70.071743
 20
197.822015
 30
0.0
 10
70.071743
 20
197.507821
 30
0.0
  0
SPLINE
  5
347
100
AcDbEntity
  8
0
 62
7
100
AcDbSpline
 70
8
 71
3
 72
8
 73
4
 74
0
 40
0
 40
0
 40
0
 40
0
 40
1
 40
1
 40
1
 40
1
 10
70.071743
 20
197.507821
 30
0.0
 10
70.071743
 20
197.197763
 30
0.0
 10
70.115840
 20
196.889771
 30
0.0
 10
70.204035
 20
196.583846
 30
0.0
  0
SPLINE
  5
348
100
AcDbEntity
  8
0
 62
7
100
AcDbSpline
 70
8
 71
3
 72
8
 73
4
 74
0
 40
0
 40
0
 40
0
 40
0
 40
1
 40
1
 40
1
 40
1
 10
70.204035
 20
196.583846
 30
0.0
 10
70.292229
 20
196.273788
 30
0.0
 10
70.427278
 20
195.952704
 30
0.0
 10
70.609179
 20
195.620597
 30
0.0
  0
LWPOLYLINE
  5
349
100
AcDbEntity
  8
0
 62
7
100
AcDbPolyline
 90
2
 70
0
 10
70.137889
 20
199.390912
 30
0.0
 10
70.609179
 20
199.390912
 30
0.0
  0
LWPOLYLINE
  5
34a
100
AcDbEntity
  8
0
 62
7
100
AcDbPolyline
 90
2
 70
0
 10
70.609179
 20
195.620597
 30
0.0
 10
70.137889
 20
195.620597
 30
0.0
  0
LWPOLYLINE
  5
34b
100
AcDbEntity
  8
0
 62
7
100
AcDbPolyline
 90
7
 70
1
 10
71.619973
 20
198.493808
 30
0.0
 10
72.233888
 20
198.493808
 30
0.0
 10
72.727915
 20
196.687200
 30
0.0
 10
73.224009
 20
198.493808
 30
0.0
 10
73.837924
 20
198.493808
 30
0.0
 10
73.102053
 20
196.178702
 30
0.0
 10
72.355843
 20
196.178702
 30
0.0
  0
SPLINE
  5
34c
100
AcDbEntity
  8
0
 62
7
100
AcDbSpline
 70
8
 71
3
 72
8
 73
4
 74
0
 40
0
 40
0
 40
0
 40
0
 40
1
 40
1
 40
1
 40
1
 10
77.397401
 20
195.620597
 30
0.0
 10
77.579302
 20
195.952704
 30
0.0
 10
77.714350
 20
196.273788
 30
0.0
 10
77.802545
 20
196.583846
 30
0.0
  0
SPLINE
  5
34d
100
AcDbEntity
  8
0
 62
7
100
AcDbSpline
 70
8
 71
3
 72
8
 73
4
 74
0
 40
0
 40
0
 40
0
 40
0
 40
1
 40
1
 40
1
 40
1
 10
77.802545
 20
196.583846
 30
0.0
 10
77.890739
 20
196.889771
 30
0.0
 10
77.934837
 20
197.197763
 30
0.0
 10
77.934837
 20
197.507821
 30
0.0
  0
SPLINE
  5
34e
100
AcDbEntity
  8
0
 62
7
100
AcDbSpline
 70
8
 71
3
 72
8
 73
4
 74
0
 40
0
 40
0
 40
0
 40
0
 40
1
 40
1
 40
1
 40
1
 10
77.934837
 20
197.507821
 30
0.0
 10
77.934837
 20
197.822015
 30
0.0
 10
77.890739
 20
198.130696
 30
0.0
 10
77.802545
 20
198.433864
 30
0.0
  0
SPLINE
  5
34f
100
AcDbEntity
  8
0
 62
7
100
AcDbSpline
 70
8
 71
3
 72
8
 73
4
 74
0
 40
0
 40
0
 40
0
 40
0
 40
1
 40
1
 40
1
 40
1
 10
77.802545
 20
198.433864
 30
0.0
 10
77.758448
 20
198.585448
 30
0.0
 10
77.702637
 20
198.741166
 30
0.0
 10
77.635113
 20
198.901019
 30
0.0
  0
SPLINE
  5
350
100
AcDbEntity
  8
0
 62
7
100
AcDbSpline
 70
8
 71
3
 72
8
 73
4
 74
0
 40
0
 40
0
 40
0
 40
0
 40
1
 40
1
 40
1
 40
1
 10
77.635113
 20
198.901019
 30
0.0
 10
77.568967
 20
199.060872
 30
0.0
 10
77.489730
 20
199.224170
 30
0.0
 10
77.397401
 20
199.390912
 30
0.0
  0
LWPOLYLINE
  5
351
100
AcDbEntity
  8
0
 62
7
100
AcDbPolyline
 90
11
 70
1
 10
74.391898
 20
196.716138
 30
0.0
 10
75.074026
 20
196.716138
 30
0.0
 10
75.074026
 20
198.636436
 30
0.0
 10
74.611005
 20
198.134140
 30
0.0
 10
74.321617
 20
198.435931
 30
0.0
 10
75.078160
 20
199.264822
 30
0.0
 10
75.667271
 20
199.264822
 30
0.0
 10
75.667271
 20
196.716138
 30
0.0
 10
76.349403
 20
196.716138
 30
0.0
 10
76.349403
 20
196.178702
 30
0.0
 10
74.391898
 20
196.178702
 30
0.0
  0
SPLINE
  5
352
100
AcDbEntity
  8
0
 62
7
100
AcDbSpline
 70
8
 71
3
 72
8
 73
4
 74
0
 40
0
 40
0
 40
0
 40
0
 40
1
 40
1
 40
1
 40
1
 10
77.868691
 20
199.390912
 30
0.0
 10
78.089177
 20
199.072586
 30
0.0
 10
78.251785
 20
198.760460
 30
0.0
 10
78.356516
 20
198.454533
 30
0.0
  0
SPLINE
  5
353
100
AcDbEntity
  8
0
 62
7
100
AcDbSpline
 70
8
 71
3
 72
8
 73
4
 74
0
 40
0
 40
0
 40
0
 40
0
 40
1
 40
1
 40
1
 40
1
 10
78.356516
 20
198.454533
 30
0.0
 10
78.410258
 20
198.297439
 30
0.0
 10
78.450221
 20
198.138276
 30
0.0
 10
78.476404
 20
197.977044
 30
0.0
  0
SPLINE
  5
354
100
AcDbEntity
  8
0
 62
7
100
AcDbSpline
 70
8
 71
3
 72
8
 73
4
 74
0
 40
0
 40
0
 40
0
 40
0
 40
1
 40
1
 40
1
 40
1
 10
78.476404
 20
197.977044
 30
0.0
 10
78.502587
 20
197.817191
 30
0.0
 10
78.515679
 20
197.659405
 30
0.0
 10
78.515679
 20
197.503687
 30
0.0
  0
SPLINE
  5
355
100
AcDbEntity
  8
0
 62
7
100
AcDbSpline
 70
8
 71
3
 72
8
 73
4
 74
0
 40
0
 40
0
 40
0
 40
0
 40
1
 40
1
 40
1
 40
1
 10
78.515679
 20
197.503687
 30
0.0
 10
78.515679
 20
197.188115
 30
0.0
 10
78.462624
 20
196.874612
 30
0.0
 10
78.356516
 20
196.563177
 30
0.0
  0
SPLINE
  5
356
100
AcDbEntity
  8
0
 62
7
100
AcDbSpline
 70
8
 71
3
 72
8
 73
4
 74
0
 40
0
 40
0
 40
0
 40
0
 40
1
 40
1
 40
1
 40
1
 10
78.356516
 20
196.563177
 30
0.0
 10
78.301393
 20
196.401946
 30
0.0
 10
78.233180
 20
196.244160
 30
0.0
 10
78.151876
 20
196.089820
 30
0.0
  0
SPLINE
  5
357
100
AcDbEntity
  8
0
 62
7
100
AcDbSpline
 70
8
 71
3
 72
8
 73
4
 74
0
 40
0
 40
0
 40
0
 40
0
 40
1
 40
1
 40
1
 40
1
 10
78.151876
 20
196.089820
 30
0.0
 10
78.071951
 20
195.935479
 30
0.0
 10
77.977556
 20
195.779072
 30
0.0
 10
77.868691
 20
195.620597
 30
0.0
  0
LWPOLYLINE
  5
358
100
AcDbEntity
  8
0
 62
7
100
AcDbPolyline
 90
2
 70
0
 10
77.397401
 20
199.390912
 30
0.0
 10
77.868691
 20
199.390912
 30
0.0
  0
LWPOLYLINE
  5
359
100
AcDbEntity
  8
0
 62
7
100
AcDbPolyline
 90
2
 70
0
 10
77.868691
 20
195.620597
 30
0.0
 10
77.397401
 20
195.620597
 30
0.0
  0
ENDSEC
  0
SECTION
  2
OBJECTS
  0
DICTIONARY
  5
C
330
0
100
AcDbDictionary
  3
ACAD_GROUP
350
D
  3
ACAD_MLINESTYLE
350
17
  0
DICTIONARY
  5
D
330
C
100
AcDbDictionary
  0
DICTIONARY
  5
1A
330
C
100
AcDbDictionary
  0
DICTIONARY
  5
17
330
C
100
AcDbDictionary
  3
STANDARD
350
18
  0
DICTIONARY
  5
19
330
C
100
AcDbDictionary
  0
ENDSEC
  0
EOF
