  0
SECTION
  2
HEADER
  9
$ACADVER
  1
AC1014
  9
$HANDSEED
  5
FFFF
  9
$INSUNITS
 70
     4
  9
$MEASUREMENT
 70
     1
  0
ENDSEC
  0
SECTION
  2
TABLES
  0
TABLE
  2
VPORT
  5
8
330
0
100
AcDbSymbolTable
 70
     4
  0
VPORT
  5
2E
330
8
100
AcDbSymbolTableRecord
100
AcDbViewportTableRecord
  2
*ACTIVE
 70
     0
 10
0.0
 20
0.0
 11
1.0
 21
1.0
 12
210.0
 22
148.5
 13
0.0
 23
0.0
 14
10.0
 24
10.0
 15
10.0
 25
10.0
 16
0.0
 26
0.0
 36
1.0
 17
0.0
 27
0.0
 37
0.0
 40
341.0
 41
1.24
 42
50.0
 43
0.0
 44
0.0
 50
0.0
 51
0.0
 71
     0
 72
   100
 73
     1
 74
     3
 75
     0
 76
     0
 77
     0
 78
     0
  0
ENDTAB
  0
TABLE
  2
LTYPE
  5
5
330
0
100
AcDbSymbolTable
 70
     1
  0
LTYPE
  5
14
330
5
100
AcDbSymbolTableRecord
100
AcDbLinetypeTableRecord
  2
BYBLOCK
 70
     0
  3

 72
    65
 73
     0
 40
0.0
  0
LTYPE
  5
15
330
5
100
AcDbSymbolTableRecord
100
AcDbLinetypeTableRecord
  2
BYLAYER
 70
     0
  3

 72
    65
 73
     0
 40
0.0
  0
LTYPE
  5
16
330
5
100
AcDbSymbolTableRecord
100
AcDbLinetypeTableRecord
  2
CONTINUOUS
 70
     0
  3
Solid line
 72
    65
 73
     0
 40
0.0
  0
ENDTAB
  0
TABLE
  2
LAYER
  5
2
100
AcDbSymbolTable
 70
1
  0
LAYER
  5
50
100
AcDbSymbolTableRecord
100
AcDbLayerTableRecord
  2
0
 70
0
  6
CONTINUOUS
  0
ENDTAB
  0
TABLE
  2
STYLE
  5
3
330
0
100
AcDbSymbolTable
 70
     1
  0
STYLE
  5
11
330
3
100
AcDbSymbolTableRecord
100
AcDbTextStyleTableRecord
  2
STANDARD
 70
     0
 40
0.0
 41
1.0
 50
0.0
 71
     0
 42
2.5
  3
txt
  4

  0
ENDTAB
  0
TABLE
  2
VIEW
  5
6
330
0
100
AcDbSymbolTable
 70
     0
  0
ENDTAB
  0
TABLE
  2
UCS
  5
7
330
0
100
AcDbSymbolTable
 70
     0
  0
ENDTAB
  0
TABLE
  2
APPID
  5
9
330
0
100
AcDbSymbolTable
 70
     2
  0
APPID
  5
12
330
9
100
AcDbSymbolTableRecord
100
AcDbRegAppTableRecord
  2
ACAD
 70
     0
  0
ENDTAB
  0
TABLE
  2
DIMSTYLE
  5
A
330
0
100
AcDbSymbolTable
 70
     1
  0
DIMSTYLE
105
27
330
A
100
AcDbSymbolTableRecord
100
AcDbDimStyleTableRecord
  2
ISO-25
 70
     0
  3

  4

  5

  6

  7

 40
1.0
 41
2.5
 42
0.625
 43
3.75
 44
1.25
 45
0.0
 46
0.0
 47
0.0
 48
0.0
140
2.5
141
2.5
142
0.0
143
0.03937007874016
144
1.0
145
0.0
146
1.0
147
0.625
 71
     0
 72
     0
 73
     0
 74
     0
 75
     0
 76
     0
 77
     1
 78
     8
170
     0
171
     3
172
     1
173
     0
174
     0
175
     0
176
     0
177
     0
178
     0
270
     2
271
     2
272
     2
273
     2
274
     3
340
11
275
     0
280
     0
281
     0
282
     0
283
     0
284
     8
285
     0
286
     0
287
     3
288
     0
  0
ENDTAB
  0
TABLE
  2
BLOCK_RECORD
  5
1
330
0
100
AcDbSymbolTable
 70
     1
  0
BLOCK_RECORD
  5
1F
330
1
100
AcDbSymbolTableRecord
100
AcDbBlockTableRecord
  2
*MODEL_SPACE
  0
BLOCK_RECORD
  5
1B
330
1
100
AcDbSymbolTableRecord
100
AcDbBlockTableRecord
  2
*PAPER_SPACE
  0
ENDTAB
  0
ENDSEC
  0
SECTION
  2
BLOCKS
  0
BLOCK
  5
20
330
1F
100
AcDbEntity
  8
0
100
AcDbBlockBegin
  2
*MODEL_SPACE
 70
     0
 10
0.0
 20
0.0
 30
0.0
  3
*MODEL_SPACE
  1

  0
ENDBLK
  5
21
330
1F
100
AcDbEntity
  8
0
100
AcDbBlockEnd
  0
BLOCK
  5
1C
330
1B
100
AcDbEntity
 67
     1
  8
0
100
AcDbBlockBegin
  2
*PAPER_SPACE
  1

  0
ENDBLK
  5
1D
330
1B
100
AcDbEntity
 67
     1
  8
0
100
AcDbBlockEnd
  0
ENDSEC
  0
SECTION
  2
ENTITIES
  0
SPLINE
  5
100
100
AcDbEntity
  8
0
 62
7
100
AcDbSpline
 70
8
 71
3
 72
8
 73
4
 74
0
 40
0
 40
0
 40
0
 40
0
 40
1
 40
1
 40
1
 40
1
 10
54.128683
 20
207.897504
 30
0.0
 10
57.243007
 20
219.095383
 30
0.0
 10
62.188602
 20
228.950942
 30
0.0
 10
68.208053
 20
237.211592
 30
0.0
  0
SPLINE
  5
101
100
AcDbEntity
  8
0
 62
7
100
AcDbSpline
 70
8
 71
3
 72
8
 73
4
 74
0
 40
0
 40
0
 40
0
 40
0
 40
1
 40
1
 40
1
 40
1
 10
68.208053
 20
237.211592
 30
0.0
 10
70.236879
 20
240.657527
 30
0.0
 10
73.000189
 20
243.733399
 30
0.0
 10
75.894027
 20
245.896281
 30
0.0
  0
SPLINE
  5
102
100
AcDbEntity
  8
0
 62
7
100
AcDbSpline
 70
8
 71
3
 72
8
 73
4
 74
0
 40
0
 40
0
 40
0
 40
0
 40
1
 40
1
 40
1
 40
1
 10
75.894027
 20
245.896281
 30
0.0
 10
74.350623
 20
259.692723
 30
0.0
 10
82.671951
 20
262.471908
 30
0.0
 10
91.416612
 20
255.042050
 30
0.0
  0
SPLINE
  5
103
100
AcDbEntity
  8
0
 62
7
100
AcDbSpline
 70
8
 71
3
 72
8
 73
4
 74
0
 40
0
 40
0
 40
0
 40
0
 40
1
 40
1
 40
1
 40
1
 10
91.416612
 20
255.042050
 30
0.0
 10
98.257683
 20
260.387695
 30
0.0
 10
108.847373
 20
256.976332
 30
0.0
 10
111.316113
 20
251.515681
 30
0.0
  0
SPLINE
  5
104
100
AcDbEntity
  8
0
 62
7
100
AcDbSpline
 70
8
 71
3
 72
8
 73
4
 74
0
 40
0
 40
0
 40
0
 40
0
 40
1
 40
1
 40
1
 40
1
 10
111.316113
 20
251.515681
 30
0.0
 10
112.912434
 20
251.059892
 30
0.0
 10
114.792388
 20
250.318706
 30
0.0
 10
115.729719
 20
249.206044
 30
0.0
  0
SPLINE
  5
105
100
AcDbEntity
  8
0
 62
7
100
AcDbSpline
 70
8
 71
3
 72
8
 73
4
 74
0
 40
0
 40
0
 40
0
 40
0
 40
1
 40
1
 40
1
 40
1
 10
115.729719
 20
249.206044
 30
0.0
 10
116.572858
 20
250.819650
 30
0.0
 10
119.226807
 20
251.307542
 30
0.0
 10
121.826428
 20
250.279547
 30
0.0
  0
SPLINE
  5
106
100
AcDbEntity
  8
0
 62
7
100
AcDbSpline
 70
8
 71
3
 72
8
 73
4
 74
0
 40
0
 40
0
 40
0
 40
0
 40
1
 40
1
 40
1
 40
1
 10
121.826428
 20
250.279547
 30
0.0
 10
124.453213
 20
249.240616
 30
0.0
 10
126.061528
 20
247.034695
 30
0.0
 10
125.524247
 20
245.271511
 30
0.0
  0
SPLINE
  5
107
100
AcDbEntity
  8
0
 62
7
100
AcDbSpline
 70
8
 71
3
 72
8
 73
4
 74
0
 40
0
 40
0
 40
0
 40
0
 40
1
 40
1
 40
1
 40
1
 10
125.524247
 20
245.271511
 30
0.0
 10
128.932083
 20
240.627541
 30
0.0
 10
126.168773
 20
234.974627
 30
0.0
 10
123.486601
 20
230.607940
 30
0.0
  0
SPLINE
  5
108
100
AcDbEntity
  8
0
 62
7
100
AcDbSpline
 70
8
 71
3
 72
8
 73
4
 74
0
 40
0
 40
0
 40
0
 40
0
 40
1
 40
1
 40
1
 40
1
 10
123.486601
 20
230.607940
 30
0.0
 10
123.512001
 20
230.674968
 30
0.0
 10
123.528582
 20
230.742702
 30
0.0
 10
123.538460
 20
230.811846
 30
0.0
  0
SPLINE
  5
109
100
AcDbEntity
  8
0
 62
7
100
AcDbSpline
 70
8
 71
3
 72
8
 73
4
 74
0
 40
0
 40
0
 40
0
 40
0
 40
1
 40
1
 40
1
 40
1
 10
123.538460
 20
230.811846
 30
0.0
 10
122.132992
 20
228.216458
 30
0.0
 10
119.376738
 20
225.424926
 30
0.0
 10
116.532289
 20
224.229009
 30
0.0
  0
SPLINE
  5
10a
100
AcDbEntity
  8
0
 62
7
100
AcDbSpline
 70
8
 71
3
 72
8
 73
4
 74
0
 40
0
 40
0
 40
0
 40
0
 40
1
 40
1
 40
1
 40
1
 10
116.532289
 20
224.229009
 30
0.0
 10
113.238400
 20
222.437249
 30
0.0
 10
114.768751
 20
217.333963
 30
0.0
 10
113.840945
 20
214.608047
 30
0.0
  0
SPLINE
  5
10b
100
AcDbEntity
  8
0
 62
7
100
AcDbSpline
 70
8
 71
3
 72
8
 73
4
 74
0
 40
0
 40
0
 40
0
 40
0
 40
1
 40
1
 40
1
 40
1
 10
113.840945
 20
214.608047
 30
0.0
 10
115.105654
 20
212.238084
 30
0.0
 10
114.412093
 20
210.751125
 30
0.0
 10
113.708301
 20
210.013114
 30
0.0
  0
SPLINE
  5
10c
100
AcDbEntity
  8
0
 62
7
100
AcDbSpline
 70
8
 71
3
 72
8
 73
4
 74
0
 40
0
 40
0
 40
0
 40
0
 40
1
 40
1
 40
1
 40
1
 10
118.514901
 20
200.110635
 30
0.0
 10
121.514925
 20
201.295264
 30
0.0
 10
124.136066
 20
202.592076
 30
0.0
 10
126.313411
 20
204.121015
 30
0.0
  0
SPLINE
  5
10d
100
AcDbEntity
  8
0
 62
7
100
AcDbSpline
 70
8
 71
3
 72
8
 73
4
 74
0
 40
0
 40
0
 40
0
 40
0
 40
1
 40
1
 40
1
 40
1
 10
126.313411
 20
204.121015
 30
0.0
 10
128.424435
 20
205.603741
 30
0.0
 10
130.133644
 20
207.311187
 30
0.0
 10
131.387417
 20
209.360827
 30
0.0
  0
LWPOLYLINE
  5
10e
100
AcDbEntity
  8
0
 62
7
100
AcDbPolyline
 90
3
 70
0
 10
113.708301
 20
210.013114
 30
0.0
 10
118.497968
 20
200.103932
 30
0.0
 10
118.514901
 20
200.110635
 30
0.0
  0
SPLINE
  5
10f
100
AcDbEntity
  8
0
 62
7
100
AcDbSpline
 70
8
 71
3
 72
8
 73
4
 74
0
 40
0
 40
0
 40
0
 40
0
 40
1
 40
1
 40
1
 40
1
 10
134.972347
 20
208.398096
 30
0.0
 10
135.049959
 20
205.149716
 30
0.0
 10
134.530317
 20
202.233300
 30
0.0
 10
133.571819
 20
199.595579
 30
0.0
  0
SPLINE
  5
110
100
AcDbEntity
  8
0
 62
7
100
AcDbSpline
 70
8
 71
3
 72
8
 73
4
 74
0
 40
0
 40
0
 40
0
 40
0
 40
1
 40
1
 40
1
 40
1
 10
133.571819
 20
199.595579
 30
0.0
 10
132.759724
 20
197.360025
 30
0.0
 10
131.640007
 20
195.337196
 30
0.0
 10
130.306858
 20
193.490756
 30
0.0
  0
SPLINE
  5
111
100
AcDbEntity
  8
0
 62
7
100
AcDbSpline
 70
8
 71
3
 72
8
 73
4
 74
0
 40
0
 40
0
 40
0
 40
0
 40
1
 40
1
 40
1
 40
1
 10
130.306858
 20
193.490756
 30
0.0
 10
130.529814
 20
193.036378
 30
0.0
 10
130.682920
 20
192.711822
 30
0.0
 10
130.834262
 20
192.367864
 30
0.0
  0
SPLINE
  5
112
100
AcDbEntity
  8
0
 62
7
100
AcDbSpline
 70
8
 71
3
 72
8
 73
4
 74
0
 40
0
 40
0
 40
0
 40
0
 40
1
 40
1
 40
1
 40
1
 10
130.834262
 20
192.367864
 30
0.0
 10
131.711268
 20
193.006392
 30
0.0
 10
132.464449
 20
193.639276
 30
0.0
 10
133.157305
 20
194.310965
 30
0.0
  0
SPLINE
  5
113
100
AcDbEntity
  8
0
 62
7
100
AcDbSpline
 70
8
 71
3
 72
8
 73
4
 74
0
 40
0
 40
0
 40
0
 40
0
 40
1
 40
1
 40
1
 40
1
 10
133.157305
 20
194.310965
 30
0.0
 10
134.326058
 20
195.443735
 30
0.0
 10
135.361814
 20
196.716558
 30
0.0
 10
136.549971
 20
198.323462
 30
0.0
  0
LWPOLYLINE
  5
114
100
AcDbEntity
  8
0
 62
7
100
AcDbPolyline
 90
3
 70
0
 10
131.387417
 20
209.360827
 30
0.0
 10
134.816420
 20
214.965764
 30
0.0
 10
134.972347
 20
208.398096
 30
0.0
  0
SPLINE
  5
115
100
AcDbEntity
  8
0
 62
7
100
AcDbSpline
 70
8
 71
3
 72
8
 73
4
 74
0
 40
0
 40
0
 40
0
 40
0
 40
1
 40
1
 40
1
 40
1
 10
140.036476
 20
197.110611
 30
0.0
 10
139.952867
 20
194.700079
 30
0.0
 10
139.478028
 20
191.619974
 30
0.0
 10
138.484605
 20
188.636531
 30
0.0
  0
SPLINE
  5
116
100
AcDbEntity
  8
0
 62
7
100
AcDbSpline
 70
8
 71
3
 72
8
 73
4
 74
0
 40
0
 40
0
 40
0
 40
0
 40
1
 40
1
 40
1
 40
1
 10
138.484605
 20
188.636531
 30
0.0
 10
137.797394
 20
186.572074
 30
0.0
 10
136.860768
 20
184.542189
 30
0.0
 10
135.631337
 20
182.785708
 30
0.0
  0
LWPOLYLINE
  5
117
100
AcDbEntity
  8
0
 62
7
100
AcDbPolyline
 90
3
 70
0
 10
136.549971
 20
198.323462
 30
0.0
 10
140.251317
 20
203.329734
 30
0.0
 10
140.036476
 20
197.110611
 30
0.0
  0
SPLINE
  5
118
100
AcDbEntity
  8
0
 62
7
100
AcDbSpline
 70
8
 71
3
 72
8
 73
4
 74
0
 40
0
 40
0
 40
0
 40
0
 40
1
 40
1
 40
1
 40
1
 10
135.702245
 20
182.631896
 30
0.0
 10
135.766098
 20
182.493960
 30
0.0
 10
135.831009
 20
182.354260
 30
0.0
 10
135.895568
 20
182.213149
 30
0.0
  0
SPLINE
  5
119
100
AcDbEntity
  8
0
 62
7
100
AcDbSpline
 70
8
 71
3
 72
8
 73
4
 74
0
 40
0
 40
0
 40
0
 40
0
 40
1
 40
1
 40
1
 40
1
 10
135.895568
 20
182.213149
 30
0.0
 10
136.616293
 20
182.951160
 30
0.0
 10
137.278810
 20
183.658833
 30
0.0
 10
137.920160
 20
184.372856
 30
0.0
  0
SPLINE
  5
11a
100
AcDbEntity
  8
0
 62
7
100
AcDbSpline
 70
8
 71
3
 72
8
 73
4
 74
0
 40
0
 40
0
 40
0
 40
0
 40
1
 40
1
 40
1
 40
1
 10
137.920160
 20
184.372856
 30
0.0
 10
139.117136
 20
185.706357
 30
0.0
 10
140.226270
 20
187.047971
 30
0.0
 10
141.495918
 20
188.645703
 30
0.0
  0
LWPOLYLINE
  5
11b
100
AcDbEntity
  8
0
 62
7
100
AcDbPolyline
 90
2
 70
0
 10
135.631337
 20
182.785708
 30
0.0
 10
135.702245
 20
182.631896
 30
0.0
  0
SPLINE
  5
11c
100
AcDbEntity
  8
0
 62
7
100
AcDbSpline
 70
8
 71
3
 72
8
 73
4
 74
0
 40
0
 40
0
 40
0
 40
0
 40
1
 40
1
 40
1
 40
1
 10
144.929507
 20
187.190494
 30
0.0
 10
144.316731
 20
182.512305
 30
0.0
 10
142.934900
 20
177.786491
 30
0.0
 10
141.016846
 20
173.069849
 30
0.0
  0
SPLINE
  5
11d
100
AcDbEntity
  8
0
 62
7
100
AcDbSpline
 70
8
 71
3
 72
8
 73
4
 74
0
 40
0
 40
0
 40
0
 40
0
 40
1
 40
1
 40
1
 40
1
 10
141.016846
 20
173.069849
 30
0.0
 10
139.116783
 20
168.396951
 30
0.0
 10
136.685790
 20
163.715234
 30
0.0
 10
133.954936
 20
159.088198
 30
0.0
  0
LWPOLYLINE
  5
11e
100
AcDbEntity
  8
0
 62
7
100
AcDbPolyline
 90
3
 70
0
 10
141.495918
 20
188.645703
 30
0.0
 10
145.834735
 20
194.104942
 30
0.0
 10
144.929507
 20
187.190494
 30
0.0
  0
SPLINE
  5
11f
100
AcDbEntity
  8
0
 62
7
100
AcDbSpline
 70
8
 71
3
 72
8
 73
4
 74
0
 40
0
 40
0
 40
0
 40
0
 40
1
 40
1
 40
1
 40
1
 10
130.362597
 20
160.278118
 30
0.0
 10
130.668103
 20
163.131740
 30
0.0
 10
130.525581
 20
166.016053
 30
0.0
 10
130.002411
 20
168.971274
 30
0.0
  0
SPLINE
  5
120
100
AcDbEntity
  8
0
 62
7
100
AcDbSpline
 70
8
 71
3
 72
8
 73
4
 74
0
 40
0
 40
0
 40
0
 40
0
 40
1
 40
1
 40
1
 40
1
 10
130.002411
 20
168.971274
 30
0.0
 10
129.288388
 20
167.072270
 30
0.0
 10
128.371518
 20
165.139046
 30
0.0
 10
127.280729
 20
163.272498
 30
0.0
  0
SPLINE
  5
121
100
AcDbEntity
  8
0
 62
7
100
AcDbSpline
 70
8
 71
3
 72
8
 73
4
 74
0
 40
0
 40
0
 40
0
 40
0
 40
1
 40
1
 40
1
 40
1
 10
127.280729
 20
163.272498
 30
0.0
 10
125.174997
 20
159.668165
 30
0.0
 10
122.396870
 20
156.263152
 30
0.0
 10
119.144963
 20
153.764778
 30
0.0
  0
LWPOLYLINE
  5
122
100
AcDbEntity
  8
0
 62
7
100
AcDbPolyline
 90
3
 70
0
 10
133.954936
 20
159.088198
 30
0.0
 10
129.410450
 20
151.387054
 30
0.0
 10
130.362597
 20
160.278118
 30
0.0
  0
SPLINE
  5
123
100
AcDbEntity
  8
0
 62
7
100
AcDbSpline
 70
8
 71
3
 72
8
 73
4
 74
0
 40
0
 40
0
 40
0
 40
0
 40
1
 40
1
 40
1
 40
1
 10
116.204205
 20
154.515490
 30
0.0
 10
114.836485
 20
157.570547
 30
0.0
 10
113.464531
 20
160.331035
 30
0.0
 10
111.885497
 20
162.737334
 30
0.0
  0
SPLINE
  5
124
100
AcDbEntity
  8
0
 62
7
100
AcDbSpline
 70
8
 71
3
 72
8
 73
4
 74
0
 40
0
 40
0
 40
0
 40
0
 40
1
 40
1
 40
1
 40
1
 10
111.885497
 20
162.737334
 30
0.0
 10
111.631497
 20
163.124331
 30
0.0
 10
111.372205
 20
163.501451
 30
0.0
 10
111.107269
 20
163.868693
 30
0.0
  0
LWPOLYLINE
  5
125
100
AcDbEntity
  8
0
 62
7
100
AcDbPolyline
 90
3
 70
0
 10
119.144963
 20
153.764778
 30
0.0
 10
117.206800
 20
152.276055
 30
0.0
 10
116.204205
 20
154.515490
 30
0.0
  0
SPLINE
  5
126
100
AcDbEntity
  8
0
 62
7
100
AcDbSpline
 70
8
 71
3
 72
8
 73
4
 74
0
 40
0
 40
0
 40
0
 40
0
 40
1
 40
1
 40
1
 40
1
 10
110.894543
 20
163.761096
 30
0.0
 10
112.353633
 20
158.691323
 30
0.0
 10
113.278970
 20
153.428228
 30
0.0
 10
114.275921
 20
147.298005
 30
0.0
  0
LWPOLYLINE
  5
127
100
AcDbEntity
  8
0
 62
7
100
AcDbPolyline
 90
2
 70
0
 10
111.107269
 20
163.868693
 30
0.0
 10
110.894543
 20
163.761096
 30
0.0
  0
SPLINE
  5
128
100
AcDbEntity
  8
0
 62
7
100
AcDbSpline
 70
8
 71
3
 72
8
 73
4
 74
0
 40
0
 40
0
 40
0
 40
0
 40
1
 40
1
 40
1
 40
1
 10
110.706160
 20
145.986376
 30
0.0
 10
109.217790
 20
148.454058
 30
0.0
 10
107.529394
 20
150.677971
 30
0.0
 10
105.629685
 20
152.710678
 30
0.0
  0
SPLINE
  5
129
100
AcDbEntity
  8
0
 62
7
100
AcDbSpline
 70
8
 71
3
 72
8
 73
4
 74
0
 40
0
 40
0
 40
0
 40
0
 40
1
 40
1
 40
1
 40
1
 10
105.629685
 20
152.710678
 30
0.0
 10
104.121911
 20
154.324284
 30
0.0
 10
102.475849
 20
155.823943
 30
0.0
 10
100.687265
 20
157.235408
 30
0.0
  0
SPLINE
  5
12a
100
AcDbEntity
  8
0
 62
7
100
AcDbSpline
 70
8
 71
3
 72
8
 73
4
 74
0
 40
0
 40
0
 40
0
 40
0
 40
1
 40
1
 40
1
 40
1
 10
100.687265
 20
157.235408
 30
0.0
 10
98.228755
 20
154.259726
 30
0.0
 10
96.755554
 20
152.347669
 30
0.0
 10
94.485428
 20
147.867388
 30
0.0
  0
LWPOLYLINE
  5
12b
100
AcDbEntity
  8
0
 62
7
100
AcDbPolyline
 90
3
 70
0
 10
114.275921
 20
147.298005
 30
0.0
 10
115.886705
 20
137.396937
 30
0.0
 10
110.706160
 20
145.986376
 30
0.0
  0
SPLINE
  5
12c
100
AcDbEntity
  8
0
 62
7
100
AcDbSpline
 70
8
 71
3
 72
8
 73
4
 74
0
 40
0
 40
0
 40
0
 40
0
 40
1
 40
1
 40
1
 40
1
 10
90.893089
 20
148.223694
 30
0.0
 10
89.279483
 20
154.006431
 30
0.0
 10
88.894955
 20
159.657582
 30
0.0
 10
89.874972
 20
165.388461
 30
0.0
  0
LWPOLYLINE
  5
12d
100
AcDbEntity
  8
0
 62
7
100
AcDbPolyline
 90
3
 70
0
 10
94.485428
 20
147.867388
 30
0.0
 10
92.232940
 20
143.421680
 30
0.0
 10
90.893089
 20
148.223694
 30
0.0
  0
SPLINE
  5
12e
100
AcDbEntity
  8
0
 62
7
100
AcDbSpline
 70
8
 71
3
 72
8
 73
4
 74
0
 40
0
 40
0
 40
0
 40
0
 40
1
 40
1
 40
1
 40
1
 10
89.386727
 20
165.611416
 30
0.0
 10
88.723504
 20
164.756282
 30
0.0
 10
88.035940
 20
163.905029
 30
0.0
 10
87.328620
 20
163.060831
 30
0.0
  0
SPLINE
  5
12f
100
AcDbEntity
  8
0
 62
7
100
AcDbSpline
 70
8
 71
3
 72
8
 73
4
 74
0
 40
0
 40
0
 40
0
 40
0
 40
1
 40
1
 40
1
 40
1
 10
87.328620
 20
163.060831
 30
0.0
 10
84.267213
 20
159.405346
 30
0.0
 10
80.826216
 20
155.858516
 30
0.0
 10
77.440606
 20
152.687394
 30
0.0
  0
LWPOLYLINE
  5
130
100
AcDbEntity
  8
0
 62
7
100
AcDbPolyline
 90
2
 70
0
 10
89.874972
 20
165.388461
 30
0.0
 10
89.386727
 20
165.611416
 30
0.0
  0
SPLINE
  5
131
100
AcDbEntity
  8
0
 62
7
100
AcDbSpline
 70
8
 71
3
 72
8
 73
4
 74
0
 40
0
 40
0
 40
0
 40
0
 40
1
 40
1
 40
1
 40
1
 10
74.189051
 20
153.877314
 30
0.0
 10
73.678934
 20
158.213309
 30
0.0
 10
73.056281
 20
162.275547
 30
0.0
 10
71.973252
 20
166.160339
 30
0.0
  0
SPLINE
  5
132
100
AcDbEntity
  8
0
 62
7
100
AcDbSpline
 70
8
 71
3
 72
8
 73
4
 74
0
 40
0
 40
0
 40
0
 40
0
 40
1
 40
1
 40
1
 40
1
 10
71.973252
 20
166.160339
 30
0.0
 10
71.285688
 20
168.626610
 30
0.0
 10
70.408682
 20
171.039259
 30
0.0
 10
69.251217
 20
173.430741
 30
0.0
  0
SPLINE
  5
133
100
AcDbEntity
  8
0
 62
7
100
AcDbSpline
 70
8
 71
3
 72
8
 73
4
 74
0
 40
0
 40
0
 40
0
 40
0
 40
1
 40
1
 40
1
 40
1
 10
69.251217
 20
173.430741
 30
0.0
 10
69.135506
 20
168.091798
 30
0.0
 10
68.586231
 20
162.645259
 30
0.0
 10
67.894433
 20
156.419433
 30
0.0
  0
LWPOLYLINE
  5
134
100
AcDbEntity
  8
0
 62
7
100
AcDbPolyline
 90
3
 70
0
 10
77.440606
 20
152.687394
 30
0.0
 10
74.638137
 20
150.062020
 30
0.0
 10
74.189051
 20
153.877314
 30
0.0
  0
SPLINE
  5
135
100
AcDbEntity
  8
0
 62
7
100
AcDbSpline
 70
8
 71
3
 72
8
 73
4
 74
0
 40
0
 40
0
 40
0
 40
0
 40
1
 40
1
 40
1
 40
1
 10
64.089722
 20
156.184482
 30
0.0
 10
63.352063
 20
159.253298
 30
0.0
 10
62.343471
 20
162.131261
 30
0.0
 10
61.068884
 20
164.876932
 30
0.0
  0
SPLINE
  5
136
100
AcDbEntity
  8
0
 62
7
100
AcDbSpline
 70
8
 71
3
 72
8
 73
4
 74
0
 40
0
 40
0
 40
0
 40
0
 40
1
 40
1
 40
1
 40
1
 10
61.068884
 20
164.876932
 30
0.0
 10
60.082164
 20
167.002773
 30
0.0
 10
58.937047
 20
169.040771
 30
0.0
 10
57.636354
 20
171.019503
 30
0.0
  0
SPLINE
  5
137
100
AcDbEntity
  8
0
 62
7
100
AcDbSpline
 70
8
 71
3
 72
8
 73
4
 74
0
 40
0
 40
0
 40
0
 40
0
 40
1
 40
1
 40
1
 40
1
 10
57.636354
 20
171.019503
 30
0.0
 10
54.462058
 20
168.472799
 30
0.0
 10
52.500259
 20
166.778053
 30
0.0
 10
49.051854
 20
162.528489
 30
0.0
  0
LWPOLYLINE
  5
138
100
AcDbEntity
  8
0
 62
7
100
AcDbPolyline
 90
3
 70
0
 10
67.894433
 20
156.419433
 30
0.0
 10
66.674174
 20
145.433926
 30
0.0
 10
64.089722
 20
156.184482
 30
0.0
  0
SPLINE
  5
139
100
AcDbEntity
  8
0
 62
7
100
AcDbSpline
 70
8
 71
3
 72
8
 73
4
 74
0
 40
0
 40
0
 40
0
 40
0
 40
1
 40
1
 40
1
 40
1
 10
45.618619
 20
163.763565
 30
0.0
 10
45.693761
 20
170.380269
 30
0.0
 10
46.894970
 20
176.529543
 30
0.0
 10
49.407455
 20
182.401532
 30
0.0
  0
LWPOLYLINE
  5
13a
100
AcDbEntity
  8
0
 62
7
100
AcDbPolyline
 90
3
 70
0
 10
49.051854
 20
162.528489
 30
0.0
 10
45.555825
 20
158.219306
 30
0.0
 10
45.618619
 20
163.763565
 30
0.0
  0
SPLINE
  5
13b
100
AcDbEntity
  8
0
 62
7
100
AcDbSpline
 70
8
 71
3
 72
8
 73
4
 74
0
 40
0
 40
0
 40
0
 40
0
 40
1
 40
1
 40
1
 40
1
 10
49.256113
 20
182.545466
 30
0.0
 10
48.135690
 20
183.612266
 30
0.0
 10
46.920370
 20
185.113337
 30
0.0
 10
45.817233
 20
186.772805
 30
0.0
  0
SPLINE
  5
13c
100
AcDbEntity
  8
0
 62
7
100
AcDbSpline
 70
8
 71
3
 72
8
 73
4
 74
0
 40
0
 40
0
 40
0
 40
0
 40
1
 40
1
 40
1
 40
1
 10
45.817233
 20
186.772805
 30
0.0
 10
45.792186
 20
186.140979
 30
0.0
 10
45.777016
 20
185.509859
 30
0.0
 10
45.772077
 20
184.879092
 30
0.0
  0
SPLINE
  5
13d
100
AcDbEntity
  8
0
 62
7
100
AcDbSpline
 70
8
 71
3
 72
8
 73
4
 74
0
 40
0
 40
0
 40
0
 40
0
 40
1
 40
1
 40
1
 40
1
 10
45.772077
 20
184.879092
 30
0.0
 10
45.749852
 20
182.111549
 30
0.0
 10
45.921655
 20
179.287561
 30
0.0
 10
46.281136
 20
176.321756
 30
0.0
  0
LWPOLYLINE
  5
13e
100
AcDbEntity
  8
0
 62
7
100
AcDbPolyline
 90
2
 70
0
 10
49.407455
 20
182.401532
 30
0.0
 10
49.256113
 20
182.545466
 30
0.0
  0
SPLINE
  5
13f
100
AcDbEntity
  8
0
 62
7
100
AcDbSpline
 70
8
 71
3
 72
8
 73
4
 74
0
 40
0
 40
0
 40
0
 40
0
 40
1
 40
1
 40
1
 40
1
 10
45.840164
 20
174.854553
 30
0.0
 10
44.251251
 20
172.944612
 30
0.0
 10
42.254528
 20
170.841703
 30
0.0
 10
40.151266
 20
169.006552
 30
0.0
  0
SPLINE
  5
140
100
AcDbEntity
  8
0
 62
7
100
AcDbSpline
 70
8
 71
3
 72
8
 73
4
 74
0
 40
0
 40
0
 40
0
 40
0
 40
1
 40
1
 40
1
 40
1
 10
40.151266
 20
169.006552
 30
0.0
 10
38.330226
 20
167.417287
 30
0.0
 10
36.415699
 20
166.012525
 30
0.0
 10
34.585134
 20
165.070608
 30
0.0
  0
LWPOLYLINE
  5
141
100
AcDbEntity
  8
0
 62
7
100
AcDbPolyline
 90
3
 70
0
 10
46.281136
 20
176.321756
 30
0.0
 10
46.380267
 20
175.504017
 30
0.0
 10
45.840164
 20
174.854553
 30
0.0
  0
SPLINE
  5
142
100
AcDbEntity
  8
0
 62
7
100
AcDbSpline
 70
8
 71
3
 72
8
 73
4
 74
0
 40
0
 40
0
 40
0
 40
0
 40
1
 40
1
 40
1
 40
1
 10
31.780196
 20
166.499358
 30
0.0
 10
30.982565
 20
171.622753
 30
0.0
 10
30.358854
 20
175.238022
 30
0.0
 10
29.610612
 20
178.561191
 30
0.0
  0
SPLINE
  5
143
100
AcDbEntity
  8
0
 62
7
100
AcDbSpline
 70
8
 71
3
 72
8
 73
4
 74
0
 40
0
 40
0
 40
0
 40
0
 40
1
 40
1
 40
1
 40
1
 10
29.610612
 20
178.561191
 30
0.0
 10
28.874364
 20
181.830738
 30
0.0
 10
28.006883
 20
184.835348
 30
0.0
 10
26.713599
 20
188.775172
 30
0.0
  0
LWPOLYLINE
  5
144
100
AcDbEntity
  8
0
 62
7
100
AcDbPolyline
 90
3
 70
0
 10
34.585134
 20
165.070608
 30
0.0
 10
32.194711
 20
163.839765
 30
0.0
 10
31.780196
 20
166.499358
 30
0.0
  0
SPLINE
  5
145
100
AcDbEntity
  8
0
 62
7
100
AcDbSpline
 70
8
 71
3
 72
8
 73
4
 74
0
 40
0
 40
0
 40
0
 40
0
 40
1
 40
1
 40
1
 40
1
 10
30.247729
 20
190.325632
 30
0.0
 10
31.397432
 20
188.289750
 30
0.0
 10
32.862519
 20
186.277504
 30
0.0
 10
34.397809
 20
184.382734
 30
0.0
  0
SPLINE
  5
146
100
AcDbEntity
  8
0
 62
7
100
AcDbSpline
 70
8
 71
3
 72
8
 73
4
 74
0
 40
0
 40
0
 40
0
 40
0
 40
1
 40
1
 40
1
 40
1
 10
34.397809
 20
184.382734
 30
0.0
 10
34.996826
 20
183.643664
 30
0.0
 10
35.611365
 20
182.917999
 30
0.0
 10
36.225199
 20
182.213502
 30
0.0
  0
SPLINE
  5
147
100
AcDbEntity
  8
0
 62
7
100
AcDbSpline
 70
8
 71
3
 72
8
 73
4
 74
0
 40
0
 40
0
 40
0
 40
0
 40
1
 40
1
 40
1
 40
1
 10
36.225199
 20
182.213502
 30
0.0
 10
36.507774
 20
185.067476
 30
0.0
 10
36.631952
 20
188.127119
 30
0.0
 10
36.400883
 20
190.961338
 30
0.0
  0
SPLINE
  5
148
100
AcDbEntity
  8
0
 62
7
100
AcDbSpline
 70
8
 71
3
 72
8
 73
4
 74
0
 40
0
 40
0
 40
0
 40
0
 40
1
 40
1
 40
1
 40
1
 10
36.400883
 20
190.961338
 30
0.0
 10
36.157466
 20
193.948662
 30
0.0
 10
35.523171
 20
196.630480
 30
0.0
 10
34.256345
 20
198.399662
 30
0.0
  0
LWPOLYLINE
  5
149
100
AcDbEntity
  8
0
 62
7
100
AcDbPolyline
 90
3
 70
0
 10
26.713599
 20
188.775172
 30
0.0
 10
20.594664
 20
207.414551
 30
0.0
 10
30.247729
 20
190.325632
 30
0.0
  0
SPLINE
  5
14a
100
AcDbEntity
  8
0
 62
7
100
AcDbSpline
 70
8
 71
3
 72
8
 73
4
 74
0
 40
0
 40
0
 40
0
 40
0
 40
1
 40
1
 40
1
 40
1
 10
35.647349
 20
201.462833
 30
0.0
 10
38.115736
 20
201.706603
 30
0.0
 10
41.030388
 20
202.415687
 30
0.0
 10
43.967265
 20
203.397115
 30
0.0
  0
SPLINE
  5
14b
100
AcDbEntity
  8
0
 62
7
100
AcDbSpline
 70
8
 71
3
 72
8
 73
4
 74
0
 40
0
 40
0
 40
0
 40
0
 40
1
 40
1
 40
1
 40
1
 10
43.967265
 20
203.397115
 30
0.0
 10
47.144737
 20
204.458624
 30
0.0
 10
50.320091
 20
205.829167
 30
0.0
 10
52.975099
 20
207.271323
 30
0.0
  0
LWPOLYLINE
  5
14c
100
AcDbEntity
  8
0
 62
7
100
AcDbPolyline
 90
3
 70
0
 10
34.256345
 20
198.399662
 30
0.0
 10
32.300544
 20
201.131927
 30
0.0
 10
35.647349
 20
201.462833
 30
0.0
  0
SPLINE
  5
14d
100
AcDbEntity
  8
0
 62
7
100
AcDbSpline
 70
8
 71
3
 72
8
 73
4
 74
0
 40
0
 40
0
 40
0
 40
0
 40
1
 40
1
 40
1
 40
1
 10
116.935161
 20
248.375604
 30
0.0
 10
119.922485
 20
249.353152
 30
0.0
 10
123.057976
 20
247.954388
 30
0.0
 10
124.052810
 20
245.914625
 30
0.0
  0
SPLINE
  5
14e
100
AcDbEntity
  8
0
 62
7
100
AcDbSpline
 70
8
 71
3
 72
8
 73
4
 74
0
 40
0
 40
0
 40
0
 40
0
 40
1
 40
1
 40
1
 40
1
 10
124.052810
 20
245.914625
 30
0.0
 10
124.184043
 20
248.493432
 30
0.0
 10
119.577468
 20
250.240742
 30
0.0
 10
116.935161
 20
248.375604
 30
0.0
  0
SPLINE
  5
14f
100
AcDbEntity
  8
0
 62
7
100
AcDbSpline
 70
8
 71
3
 72
8
 73
4
 74
0
 40
0
 40
0
 40
0
 40
0
 40
1
 40
1
 40
1
 40
1
 10
108.251883
 20
229.495279
 30
0.0
 10
108.896762
 20
232.328792
 30
0.0
 10
109.838326
 20
235.206402
 30
0.0
 10
109.352551
 20
238.165504
 30
0.0
  0
SPLINE
  5
150
100
AcDbEntity
  8
0
 62
7
100
AcDbSpline
 70
8
 71
3
 72
8
 73
4
 74
0
 40
0
 40
0
 40
0
 40
0
 40
1
 40
1
 40
1
 40
1
 10
109.352551
 20
238.165504
 30
0.0
 10
113.921731
 20
240.390474
 30
0.0
 10
120.416374
 20
237.094822
 30
0.0
 10
123.123240
 20
233.867256
 30
0.0
  0
SPLINE
  5
151
100
AcDbEntity
  8
0
 62
7
100
AcDbSpline
 70
8
 71
3
 72
8
 73
4
 74
0
 40
0
 40
0
 40
0
 40
0
 40
1
 40
1
 40
1
 40
1
 10
123.123240
 20
233.867256
 30
0.0
 10
121.485997
 20
230.568782
 30
0.0
 10
119.222221
 20
227.828403
 30
0.0
 10
115.699380
 20
225.912818
 30
0.0
  0
SPLINE
  5
152
100
AcDbEntity
  8
0
 62
7
100
AcDbSpline
 70
8
 71
3
 72
8
 73
4
 74
0
 40
0
 40
0
 40
0
 40
0
 40
1
 40
1
 40
1
 40
1
 10
115.699380
 20
225.912818
 30
0.0
 10
116.501597
 20
228.071467
 30
0.0
 10
118.315581
 20
231.478949
 30
0.0
 10
118.489501
 20
233.763187
 30
0.0
  0
LWPOLYLINE
  5
153
100
AcDbEntity
  8
0
 62
7
100
AcDbPolyline
 90
2
 70
0
 10
52.975099
 20
207.271323
 30
0.0
 10
54.128683
 20
207.897504
 30
0.0
  0
SPLINE
  5
154
100
AcDbEntity
  8
0
 62
7
100
AcDbSpline
 70
8
 71
3
 72
8
 73
4
 74
0
 40
0
 40
0
 40
0
 40
0
 40
1
 40
1
 40
1
 40
1
 10
112.895147
 20
235.545421
 30
0.0
 10
111.763788
 20
233.534587
 30
0.0
 10
110.137482
 20
230.799499
 30
0.0
 10
108.251883
 20
229.495279
 30
0.0
  0
SPLINE
  5
155
100
AcDbEntity
  8
0
 62
7
100
AcDbSpline
 70
8
 71
3
 72
8
 73
4
 74
0
 40
0
 40
0
 40
0
 40
0
 40
1
 40
1
 40
1
 40
1
 10
112.005441
 20
214.447180
 30
0.0
 10
108.791987
 20
214.744925
 30
0.0
 10
105.274437
 20
215.684373
 30
0.0
 10
102.972561
 20
217.710730
 30
0.0
  0
SPLINE
  5
156
100
AcDbEntity
  8
0
 62
7
100
AcDbSpline
 70
8
 71
3
 72
8
 73
4
 74
0
 40
0
 40
0
 40
0
 40
0
 40
1
 40
1
 40
1
 40
1
 10
102.972561
 20
217.710730
 30
0.0
 10
104.749151
 20
218.930989
 30
0.0
 10
106.490463
 20
220.874443
 30
0.0
 10
107.403100
 20
223.178789
 30
0.0
  0
SPLINE
  5
157
100
AcDbEntity
  8
0
 62
7
100
AcDbSpline
 70
8
 71
3
 72
8
 73
4
 74
0
 40
0
 40
0
 40
0
 40
0
 40
1
 40
1
 40
1
 40
1
 10
107.403100
 20
223.178789
 30
0.0
 10
107.656747
 20
221.318943
 30
0.0
 10
107.670858
 20
219.286942
 30
0.0
 10
106.790677
 20
217.805274
 30
0.0
  0
LWPOLYLINE
  5
158
100
AcDbEntity
  8
0
 62
7
100
AcDbPolyline
 90
2
 70
0
 10
118.489501
 20
233.763187
 30
0.0
 10
112.895147
 20
235.545421
 30
0.0
  0
SPLINE
  5
159
100
AcDbEntity
  8
0
 62
7
100
AcDbSpline
 70
8
 71
3
 72
8
 73
4
 74
0
 40
0
 40
0
 40
0
 40
0
 40
1
 40
1
 40
1
 40
1
 10
110.077510
 20
216.739179
 30
0.0
 10
111.382083
 20
218.415227
 30
0.0
 10
111.813883
 20
219.807289
 30
0.0
 10
112.258383
 20
221.576118
 30
0.0
  0
SPLINE
  5
15a
100
AcDbEntity
  8
0
 62
7
100
AcDbSpline
 70
8
 71
3
 72
8
 73
4
 74
0
 40
0
 40
0
 40
0
 40
0
 40
1
 40
1
 40
1
 40
1
 10
112.258383
 20
221.576118
 30
0.0
 10
112.620686
 20
219.091150
 30
0.0
 10
112.523672
 20
216.680618
 30
0.0
 10
112.005441
 20
214.447180
 30
0.0
  0
SPLINE
  5
15b
100
AcDbEntity
  8
0
 62
7
100
AcDbSpline
 70
8
 71
3
 72
8
 73
4
 74
0
 40
0
 40
0
 40
0
 40
0
 40
1
 40
1
 40
1
 40
1
 10
107.993650
 20
248.168877
 30
0.0
 10
104.004789
 20
251.189009
 30
0.0
 10
100.100242
 20
253.250996
 30
0.0
 10
95.000483
 20
251.386212
 30
0.0
  0
SPLINE
  5
15c
100
AcDbEntity
  8
0
 62
7
100
AcDbSpline
 70
8
 71
3
 72
8
 73
4
 74
0
 40
0
 40
0
 40
0
 40
0
 40
1
 40
1
 40
1
 40
1
 10
95.000483
 20
251.386212
 30
0.0
 10
98.855289
 20
249.978980
 30
0.0
 10
100.796273
 20
248.558343
 30
0.0
 10
102.042991
 20
245.918153
 30
0.0
  0
SPLINE
  5
15d
100
AcDbEntity
  8
0
 62
7
100
AcDbSpline
 70
8
 71
3
 72
8
 73
4
 74
0
 40
0
 40
0
 40
0
 40
0
 40
1
 40
1
 40
1
 40
1
 10
102.042991
 20
245.918153
 30
0.0
 10
103.863678
 20
246.817737
 30
0.0
 10
105.851582
 20
247.596318
 30
0.0
 10
107.993650
 20
248.168877
 30
0.0
  0
SPLINE
  5
15e
100
AcDbEntity
  8
0
 62
7
100
AcDbSpline
 70
8
 71
3
 72
8
 73
4
 74
0
 40
0
 40
0
 40
0
 40
0
 40
1
 40
1
 40
1
 40
1
 10
82.434531
 20
249.445227
 30
0.0
 10
82.182648
 20
248.911827
 30
0.0
 10
81.729328
 20
248.824691
 30
0.0
 10
81.161708
 20
248.729794
 30
0.0
  0
SPLINE
  5
15f
100
AcDbEntity
  8
0
 62
7
100
AcDbSpline
 70
8
 71
3
 72
8
 73
4
 74
0
 40
0
 40
0
 40
0
 40
0
 40
1
 40
1
 40
1
 40
1
 10
81.161708
 20
248.729794
 30
0.0
 10
78.807620
 20
249.051174
 30
0.0
 10
78.896521
 20
250.818945
 30
0.0
 10
80.679461
 20
253.404808
 30
0.0
  0
SPLINE
  5
160
100
AcDbEntity
  8
0
 62
7
100
AcDbSpline
 70
8
 71
3
 72
8
 73
4
 74
0
 40
0
 40
0
 40
0
 40
0
 40
1
 40
1
 40
1
 40
1
 10
80.679461
 20
253.404808
 30
0.0
 10
82.511789
 20
255.403295
 30
0.0
 10
82.995448
 20
253.212191
 30
0.0
 10
82.434531
 20
249.445227
 30
0.0
  0
SPLINE
  5
161
100
AcDbEntity
  8
0
 62
7
100
AcDbSpline
 70
8
 71
3
 72
8
 73
4
 74
0
 40
0
 40
0
 40
0
 40
0
 40
1
 40
1
 40
1
 40
1
 10
113.467353
 20
213.846399
 30
0.0
 10
113.075064
 20
211.835918
 30
0.0
 10
112.108453
 20
211.389301
 30
0.0
 10
110.311049
 20
210.969495
 30
0.0
  0
SPLINE
  5
162
100
AcDbEntity
  8
0
 62
7
100
AcDbSpline
 70
8
 71
3
 72
8
 73
4
 74
0
 40
0
 40
0
 40
0
 40
0
 40
1
 40
1
 40
1
 40
1
 10
110.311049
 20
210.969495
 30
0.0
 10
105.412373
 20
209.897402
 30
0.0
 10
101.371654
 20
211.589326
 30
0.0
 10
97.636441
 20
216.037856
 30
0.0
  0
SPLINE
  5
163
100
AcDbEntity
  8
0
 62
7
100
AcDbSpline
 70
8
 71
3
 72
8
 73
4
 74
0
 40
0
 40
0
 40
0
 40
0
 40
1
 40
1
 40
1
 40
1
 10
97.636441
 20
216.037856
 30
0.0
 10
97.799071
 20
214.915317
 30
0.0
 10
97.683007
 20
214.027374
 30
0.0
 10
97.456171
 20
212.898838
 30
0.0
  0
SPLINE
  5
164
100
AcDbEntity
  8
0
 62
7
100
AcDbSpline
 70
8
 71
3
 72
8
 73
4
 74
0
 40
0
 40
0
 40
0
 40
0
 40
1
 40
1
 40
1
 40
1
 10
97.456171
 20
212.898838
 30
0.0
 10
96.016484
 20
213.932830
 30
0.0
 10
92.732826
 20
217.224954
 30
0.0
 10
92.406507
 20
223.117758
 30
0.0
  0
SPLINE
  5
165
100
AcDbEntity
  8
0
 62
7
100
AcDbSpline
 70
8
 71
3
 72
8
 73
4
 74
0
 40
0
 40
0
 40
0
 40
0
 40
1
 40
1
 40
1
 40
1
 10
92.406507
 20
223.117758
 30
0.0
 10
92.079834
 20
229.010914
 30
0.0
 10
94.346080
 20
231.808091
 30
0.0
 10
97.248738
 20
236.439714
 30
0.0
  0
SPLINE
  5
166
100
AcDbEntity
  8
0
 62
7
100
AcDbSpline
 70
8
 71
3
 72
8
 73
4
 74
0
 40
0
 40
0
 40
0
 40
0
 40
1
 40
1
 40
1
 40
1
 10
97.248738
 20
236.439714
 30
0.0
 10
97.734513
 20
234.578457
 30
0.0
 10
98.226285
 20
232.871011
 30
0.0
 10
99.512161
 20
231.266577
 30
0.0
  0
SPLINE
  5
167
100
AcDbEntity
  8
0
 62
7
100
AcDbSpline
 70
8
 71
3
 72
8
 73
4
 74
0
 40
0
 40
0
 40
0
 40
0
 40
1
 40
1
 40
1
 40
1
 10
99.512161
 20
231.266577
 30
0.0
 10
102.324860
 20
242.257376
 30
0.0
 10
108.775053
 20
246.724603
 30
0.0
 10
115.624238
 20
247.160637
 30
0.0
  0
SPLINE
  5
168
100
AcDbEntity
  8
0
 62
7
100
AcDbSpline
 70
8
 71
3
 72
8
 73
4
 74
0
 40
0
 40
0
 40
0
 40
0
 40
1
 40
1
 40
1
 40
1
 10
115.624238
 20
247.160637
 30
0.0
 10
116.072266
 20
245.835603
 30
0.0
 10
117.415645
 20
244.527855
 30
0.0
 10
119.263143
 20
243.797252
 30
0.0
  0
SPLINE
  5
169
100
AcDbEntity
  8
0
 62
7
100
AcDbSpline
 70
8
 71
3
 72
8
 73
4
 74
0
 40
0
 40
0
 40
0
 40
0
 40
1
 40
1
 40
1
 40
1
 10
119.263143
 20
243.797252
 30
0.0
 10
120.950128
 20
243.129796
 30
0.0
 10
122.660395
 20
243.101221
 30
0.0
 10
123.883477
 20
243.604635
 30
0.0
  0
SPLINE
  5
16a
100
AcDbEntity
  8
0
 62
7
100
AcDbSpline
 70
8
 71
3
 72
8
 73
4
 74
0
 40
0
 40
0
 40
0
 40
0
 40
1
 40
1
 40
1
 40
1
 10
123.883477
 20
243.604635
 30
0.0
 10
125.213802
 20
241.268892
 30
0.0
 10
125.540475
 20
238.098476
 30
0.0
 10
124.226730
 20
235.065291
 30
0.0
  0
SPLINE
  5
16b
100
AcDbEntity
  8
0
 62
7
100
AcDbSpline
 70
8
 71
3
 72
8
 73
4
 74
0
 40
0
 40
0
 40
0
 40
0
 40
1
 40
1
 40
1
 40
1
 10
124.226730
 20
235.065291
 30
0.0
 10
121.752345
 20
239.330024
 30
0.0
 10
111.620561
 20
243.566182
 30
0.0
 10
106.961069
 20
237.915031
 30
0.0
  0
SPLINE
  5
16c
100
AcDbEntity
  8
0
 62
7
100
AcDbSpline
 70
8
 71
3
 72
8
 73
4
 74
0
 40
0
 40
0
 40
0
 40
0
 40
1
 40
1
 40
1
 40
1
 10
106.961069
 20
237.915031
 30
0.0
 10
101.959735
 20
231.694144
 30
0.0
 10
100.713018
 20
220.609859
 30
0.0
 10
101.332849
 20
217.024224
 30
0.0
  0
SPLINE
  5
16d
100
AcDbEntity
  8
0
 62
7
100
AcDbSpline
 70
8
 71
3
 72
8
 73
4
 74
0
 40
0
 40
0
 40
0
 40
0
 40
1
 40
1
 40
1
 40
1
 10
101.332849
 20
217.024224
 30
0.0
 10
101.689860
 20
214.724817
 30
0.0
 10
108.288220
 20
212.503021
 30
0.0
 10
111.349627
 20
212.843099
 30
0.0
  0
SPLINE
  5
16e
100
AcDbEntity
  8
0
 62
7
100
AcDbSpline
 70
8
 71
3
 72
8
 73
4
 74
0
 40
0
 40
0
 40
0
 40
0
 40
1
 40
1
 40
1
 40
1
 10
111.349627
 20
212.843099
 30
0.0
 10
112.397378
 20
212.875907
 30
0.0
 10
113.052486
 20
213.250205
 30
0.0
 10
113.467353
 20
213.846399
 30
0.0
  0
SPLINE
  5
16f
100
AcDbEntity
  8
0
 62
7
100
AcDbSpline
 70
8
 71
3
 72
8
 73
4
 74
0
 40
0
 40
0
 40
0
 40
0
 40
1
 40
1
 40
1
 40
1
 10
75.968110
 20
214.277494
 30
0.0
 10
84.141977
 20
202.918395
 30
0.0
 10
94.389472
 20
194.875410
 30
0.0
 10
100.204312
 20
185.269617
 30
0.0
  0
SPLINE
  5
170
100
AcDbEntity
  8
0
 62
7
100
AcDbSpline
 70
8
 71
3
 72
8
 73
4
 74
0
 40
0
 40
0
 40
0
 40
0
 40
1
 40
1
 40
1
 40
1
 10
100.204312
 20
185.269617
 30
0.0
 10
99.738645
 20
194.734298
 30
0.0
 10
107.272924
 20
203.280698
 30
0.0
 10
113.704420
 20
210.012761
 30
0.0
  0
SPLINE
  5
171
100
AcDbEntity
  8
0
 62
7
100
AcDbSpline
 70
8
 71
3
 72
8
 73
4
 74
0
 40
0
 40
0
 40
0
 40
0
 40
1
 40
1
 40
1
 40
1
 10
113.704420
 20
210.012761
 30
0.0
 10
111.071638
 20
207.464645
 30
0.0
 10
101.723374
 20
207.473465
 30
0.0
 10
98.283083
 20
200.997519
 30
0.0
  0
SPLINE
  5
172
100
AcDbEntity
  8
0
 62
7
100
AcDbSpline
 70
8
 71
3
 72
8
 73
4
 74
0
 40
0
 40
0
 40
0
 40
0
 40
1
 40
1
 40
1
 40
1
 10
98.283083
 20
200.997519
 30
0.0
 10
95.149356
 20
205.396661
 30
0.0
 10
91.183073
 20
207.561307
 30
0.0
 10
86.485834
 20
210.387058
 30
0.0
  0
SPLINE
  5
173
100
AcDbEntity
  8
0
 62
7
100
AcDbSpline
 70
8
 71
3
 72
8
 73
4
 74
0
 40
0
 40
0
 40
0
 40
0
 40
1
 40
1
 40
1
 40
1
 10
86.485834
 20
210.387058
 30
0.0
 10
78.212484
 20
215.228584
 30
0.0
 10
69.721823
 20
230.665443
 30
0.0
 10
71.291685
 20
238.515459
 30
0.0
  0
SPLINE
  5
174
100
AcDbEntity
  8
0
 62
7
100
AcDbSpline
 70
8
 71
3
 72
8
 73
4
 74
0
 40
0
 40
0
 40
0
 40
0
 40
1
 40
1
 40
1
 40
1
 10
71.291685
 20
238.515459
 30
0.0
 10
68.004853
 20
234.184051
 30
0.0
 10
69.693601
 20
222.997461
 30
0.0
 10
75.968110
 20
214.277494
 30
0.0
  0
SPLINE
  5
175
100
AcDbEntity
  8
0
 62
7
100
AcDbSpline
 70
8
 71
3
 72
8
 73
4
 74
0
 40
0
 40
0
 40
0
 40
0
 40
1
 40
1
 40
1
 40
1
 10
132.287707
 20
160.073507
 30
0.0
 10
133.531249
 20
171.687312
 30
0.0
 10
127.834590
 20
183.596744
 30
0.0
 10
119.227513
 20
198.306528
 30
0.0
  0
SPLINE
  5
176
100
AcDbEntity
  8
0
 62
7
100
AcDbSpline
 70
8
 71
3
 72
8
 73
4
 74
0
 40
0
 40
0
 40
0
 40
0
 40
1
 40
1
 40
1
 40
1
 10
119.227513
 20
198.306528
 30
0.0
 10
125.482972
 20
200.777033
 30
0.0
 10
130.235597
 20
203.768590
 30
0.0
 10
133.039830
 20
208.352588
 30
0.0
  0
SPLINE
  5
177
100
AcDbEntity
  8
0
 62
7
100
AcDbSpline
 70
8
 71
3
 72
8
 73
4
 74
0
 40
0
 40
0
 40
0
 40
0
 40
1
 40
1
 40
1
 40
1
 10
133.039830
 20
208.352588
 30
0.0
 10
133.181999
 20
202.370178
 30
0.0
 10
131.132006
 20
197.623903
 30
0.0
 10
128.042729
 20
193.706303
 30
0.0
  0
SPLINE
  5
178
100
AcDbEntity
  8
0
 62
7
100
AcDbSpline
 70
8
 71
3
 72
8
 73
4
 74
0
 40
0
 40
0
 40
0
 40
0
 40
1
 40
1
 40
1
 40
1
 10
128.042729
 20
193.706303
 30
0.0
 10
129.094713
 20
191.601630
 30
0.0
 10
129.029802
 20
191.704994
 30
0.0
 10
129.955492
 20
189.448978
 30
0.0
  0
SPLINE
  5
179
100
AcDbEntity
  8
0
 62
7
100
AcDbSpline
 70
8
 71
3
 72
8
 73
4
 74
0
 40
0
 40
0
 40
0
 40
0
 40
1
 40
1
 40
1
 40
1
 10
129.955492
 20
189.448978
 30
0.0
 10
133.722455
 20
191.794247
 30
0.0
 10
135.607701
 20
193.795556
 30
0.0
 10
138.103605
 20
197.171289
 30
0.0
  0
SPLINE
  5
17a
100
AcDbEntity
  8
0
 62
7
100
AcDbSpline
 70
8
 71
3
 72
8
 73
4
 74
0
 40
0
 40
0
 40
0
 40
0
 40
1
 40
1
 40
1
 40
1
 10
138.103605
 20
197.171289
 30
0.0
 10
137.963199
 20
193.104817
 30
0.0
 10
136.627582
 20
186.991527
 30
0.0
 10
133.396841
 20
183.033711
 30
0.0
  0
SPLINE
  5
17b
100
AcDbEntity
  8
0
 62
7
100
AcDbSpline
 70
8
 71
3
 72
8
 73
4
 74
0
 40
0
 40
0
 40
0
 40
0
 40
1
 40
1
 40
1
 40
1
 10
133.396841
 20
183.033711
 30
0.0
 10
133.922833
 20
181.798282
 30
0.0
 10
134.782200
 20
180.168800
 30
0.0
 10
135.181192
 20
178.782383
 30
0.0
  0
SPLINE
  5
17c
100
AcDbEntity
  8
0
 62
7
100
AcDbSpline
 70
8
 71
3
 72
8
 73
4
 74
0
 40
0
 40
0
 40
0
 40
0
 40
1
 40
1
 40
1
 40
1
 10
135.181192
 20
178.782383
 30
0.0
 10
138.482136
 20
181.957738
 30
0.0
 10
140.414654
 20
184.172831
 30
0.0
 10
143.011805
 20
187.440613
 30
0.0
  0
SPLINE
  5
17d
100
AcDbEntity
  8
0
 62
7
100
AcDbSpline
 70
8
 71
3
 72
8
 73
4
 74
0
 40
0
 40
0
 40
0
 40
0
 40
1
 40
1
 40
1
 40
1
 10
143.011805
 20
187.440613
 30
0.0
 10
141.835643
 20
178.456416
 30
0.0
 10
137.653108
 20
169.165655
 30
0.0
 10
132.287707
 20
160.073507
 30
0.0
  0
SPLINE
  5
17e
100
AcDbEntity
  8
0
 62
7
100
AcDbSpline
 70
8
 71
3
 72
8
 73
4
 74
0
 40
0
 40
0
 40
0
 40
0
 40
1
 40
1
 40
1
 40
1
 10
113.280028
 20
183.496202
 30
0.0
 10
118.039356
 20
182.250896
 30
0.0
 10
121.893456
 20
182.077329
 30
0.0
 10
124.810224
 20
183.382608
 30
0.0
  0
SPLINE
  5
17f
100
AcDbEntity
  8
0
 62
7
100
AcDbSpline
 70
8
 71
3
 72
8
 73
4
 74
0
 40
0
 40
0
 40
0
 40
0
 40
1
 40
1
 40
1
 40
1
 10
124.810224
 20
183.382608
 30
0.0
 10
119.203171
 20
186.182607
 30
0.0
 10
113.631748
 20
188.886298
 30
0.0
 10
108.522464
 20
193.275209
 30
0.0
  0
SPLINE
  5
180
100
AcDbEntity
  8
0
 62
7
100
AcDbSpline
 70
8
 71
3
 72
8
 73
4
 74
0
 40
0
 40
0
 40
0
 40
0
 40
1
 40
1
 40
1
 40
1
 10
108.522464
 20
193.275209
 30
0.0
 10
108.320322
 20
185.222698
 30
0.0
 10
108.676275
 20
178.800022
 30
0.0
 10
107.745647
 20
170.120625
 30
0.0
  0
SPLINE
  5
181
100
AcDbEntity
  8
0
 62
7
100
AcDbSpline
 70
8
 71
3
 72
8
 73
4
 74
0
 40
0
 40
0
 40
0
 40
0
 40
1
 40
1
 40
1
 40
1
 10
107.745647
 20
170.120625
 30
0.0
 10
112.302128
 20
166.707497
 30
0.0
 10
115.145518
 20
161.613736
 30
0.0
 10
117.970212
 20
155.303243
 30
0.0
  0
SPLINE
  5
182
100
AcDbEntity
  8
0
 62
7
100
AcDbSpline
 70
8
 71
3
 72
8
 73
4
 74
0
 40
0
 40
0
 40
0
 40
0
 40
1
 40
1
 40
1
 40
1
 10
117.970212
 20
155.303243
 30
0.0
 10
124.347027
 20
160.202271
 30
0.0
 10
128.844946
 20
168.965629
 30
0.0
 10
129.685616
 20
175.353028
 30
0.0
  0
SPLINE
  5
183
100
AcDbEntity
  8
0
 62
7
100
AcDbSpline
 70
8
 71
3
 72
8
 73
4
 74
0
 40
0
 40
0
 40
0
 40
0
 40
1
 40
1
 40
1
 40
1
 10
129.685616
 20
175.353028
 30
0.0
 10
126.108447
 20
174.664758
 30
0.0
 10
119.429302
 20
175.115256
 30
0.0
 10
115.341663
 20
176.438173
 30
0.0
  0
SPLINE
  5
184
100
AcDbEntity
  8
0
 62
7
100
AcDbSpline
 70
8
 71
3
 72
8
 73
4
 74
0
 40
0
 40
0
 40
0
 40
0
 40
1
 40
1
 40
1
 40
1
 10
115.341663
 20
176.438173
 30
0.0
 10
116.861078
 20
174.411111
 30
0.0
 10
121.280328
 20
171.514098
 30
0.0
 10
123.143701
 20
170.463525
 30
0.0
  0
SPLINE
  5
185
100
AcDbEntity
  8
0
 62
7
100
AcDbSpline
 70
8
 71
3
 72
8
 73
4
 74
0
 40
0
 40
0
 40
0
 40
0
 40
1
 40
1
 40
1
 40
1
 10
123.143701
 20
170.463525
 30
0.0
 10
121.666620
 20
169.057704
 30
0.0
 10
120.105224
 20
167.643065
 30
0.0
 10
118.397426
 20
167.003125
 30
0.0
  0
SPLINE
  5
186
100
AcDbEntity
  8
0
 62
7
100
AcDbSpline
 70
8
 71
3
 72
8
 73
4
 74
0
 40
0
 40
0
 40
0
 40
0
 40
1
 40
1
 40
1
 40
1
 10
118.397426
 20
167.003125
 30
0.0
 10
115.928685
 20
171.720473
 30
0.0
 10
114.363410
 20
177.666193
 30
0.0
 10
113.280028
 20
183.496202
 30
0.0
  0
SPLINE
  5
187
100
AcDbEntity
  8
0
 62
7
100
AcDbSpline
 70
8
 71
3
 72
8
 73
4
 74
0
 40
0
 40
0
 40
0
 40
0
 40
1
 40
1
 40
1
 40
1
 10
103.561347
 20
163.859521
 30
0.0
 10
102.451860
 20
165.173266
 30
0.0
 10
101.280637
 20
165.989594
 30
0.0
 10
99.601414
 20
166.391056
 30
0.0
  0
SPLINE
  5
188
100
AcDbEntity
  8
0
 62
7
100
AcDbSpline
 70
8
 71
3
 72
8
 73
4
 74
0
 40
0
 40
0
 40
0
 40
0
 40
1
 40
1
 40
1
 40
1
 10
99.601414
 20
166.391056
 30
0.0
 10
98.408672
 20
165.860477
 30
0.0
 10
97.476985
 20
165.023335
 30
0.0
 10
96.708987
 20
164.005924
 30
0.0
  0
SPLINE
  5
189
100
AcDbEntity
  8
0
 62
7
100
AcDbSpline
 70
8
 71
3
 72
8
 73
4
 74
0
 40
0
 40
0
 40
0
 40
0
 40
1
 40
1
 40
1
 40
1
 10
96.708987
 20
164.005924
 30
0.0
 10
96.804590
 20
167.193626
 30
0.0
 10
97.387379
 20
170.213052
 30
0.0
 10
99.180903
 20
173.348896
 30
0.0
  0
SPLINE
  5
18a
100
AcDbEntity
  8
0
 62
7
100
AcDbSpline
 70
8
 71
3
 72
8
 73
4
 74
0
 40
0
 40
0
 40
0
 40
0
 40
1
 40
1
 40
1
 40
1
 10
99.180903
 20
173.348896
 30
0.0
 10
101.677513
 20
170.154844
 30
0.0
 10
102.620488
 20
167.581329
 30
0.0
 10
103.561347
 20
163.859521
 30
0.0
  0
SPLINE
  5
18b
100
AcDbEntity
  8
0
 62
7
100
AcDbSpline
 70
8
 71
3
 72
8
 73
4
 74
0
 40
0
 40
0
 40
0
 40
0
 40
1
 40
1
 40
1
 40
1
 10
112.365980
 20
146.986854
 30
0.0
 10
110.091973
 20
160.965330
 30
0.0
 10
108.204611
 20
170.358044
 30
0.0
 10
99.426789
 20
183.070399
 30
0.0
  0
SPLINE
  5
18c
100
AcDbEntity
  8
0
 62
7
100
AcDbSpline
 70
8
 71
3
 72
8
 73
4
 74
0
 40
0
 40
0
 40
0
 40
0
 40
1
 40
1
 40
1
 40
1
 10
99.426789
 20
183.070399
 30
0.0
 10
91.410967
 20
171.008214
 30
0.0
 10
89.570524
 20
160.160996
 30
0.0
 10
92.757521
 20
148.738750
 30
0.0
  0
SPLINE
  5
18d
100
AcDbEntity
  8
0
 62
7
100
AcDbSpline
 70
8
 71
3
 72
8
 73
4
 74
0
 40
0
 40
0
 40
0
 40
0
 40
1
 40
1
 40
1
 40
1
 10
92.757521
 20
148.738750
 30
0.0
 10
95.476381
 20
154.104856
 30
0.0
 10
97.076229
 20
155.910727
 30
0.0
 10
100.378937
 20
159.900646
 30
0.0
  0
SPLINE
  5
18e
100
AcDbEntity
  8
0
 62
7
100
AcDbSpline
 70
8
 71
3
 72
8
 73
4
 74
0
 40
0
 40
0
 40
0
 40
0
 40
1
 40
1
 40
1
 40
1
 10
100.378937
 20
159.900646
 30
0.0
 10
105.289254
 20
156.302663
 30
0.0
 10
109.254479
 20
152.146233
 30
0.0
 10
112.365980
 20
146.986854
 30
0.0
  0
SPLINE
  5
18f
100
AcDbEntity
  8
0
 62
7
100
AcDbSpline
 70
8
 71
3
 72
8
 73
4
 74
0
 40
0
 40
0
 40
0
 40
0
 40
1
 40
1
 40
1
 40
1
 10
79.537518
 20
165.620941
 30
0.0
 10
77.896042
 20
174.629480
 30
0.0
 10
74.319932
 20
183.707869
 30
0.0
 10
70.821079
 20
191.763908
 30
0.0
  0
SPLINE
  5
190
100
AcDbEntity
  8
0
 62
7
100
AcDbSpline
 70
8
 71
3
 72
8
 73
4
 74
0
 40
0
 40
0
 40
0
 40
0
 40
1
 40
1
 40
1
 40
1
 10
70.821079
 20
191.763908
 30
0.0
 10
70.857415
 20
186.682493
 30
0.0
 10
71.090954
 20
182.514774
 30
0.0
 10
68.672661
 20
178.449713
 30
0.0
  0
SPLINE
  5
191
100
AcDbEntity
  8
0
 62
7
100
AcDbSpline
 70
8
 71
3
 72
8
 73
4
 74
0
 40
0
 40
0
 40
0
 40
0
 40
1
 40
1
 40
1
 40
1
 10
68.672661
 20
178.449713
 30
0.0
 10
73.562870
 20
170.694594
 30
0.0
 10
75.075582
 20
162.925365
 30
0.0
 10
76.114160
 20
154.096742
 30
0.0
  0
SPLINE
  5
192
100
AcDbEntity
  8
0
 62
7
100
AcDbSpline
 70
8
 71
3
 72
8
 73
4
 74
0
 40
0
 40
0
 40
0
 40
0
 40
1
 40
1
 40
1
 40
1
 10
76.114160
 20
154.096742
 30
0.0
 10
82.334695
 20
159.923577
 30
0.0
 10
88.745377
 20
167.039462
 30
0.0
 10
92.567374
 20
173.741185
 30
0.0
  0
SPLINE
  5
193
100
AcDbEntity
  8
0
 62
7
100
AcDbSpline
 70
8
 71
3
 72
8
 73
4
 74
0
 40
0
 40
0
 40
0
 40
0
 40
1
 40
1
 40
1
 40
1
 10
92.567374
 20
173.741185
 30
0.0
 10
90.407667
 20
175.871259
 30
0.0
 10
87.943160
 20
180.732540
 30
0.0
 10
87.362487
 20
184.288895
 30
0.0
  0
SPLINE
  5
194
100
AcDbEntity
  8
0
 62
7
100
AcDbSpline
 70
8
 71
3
 72
8
 73
4
 74
0
 40
0
 40
0
 40
0
 40
0
 40
1
 40
1
 40
1
 40
1
 10
87.362487
 20
184.288895
 30
0.0
 10
85.892814
 20
176.667832
 30
0.0
 10
84.515216
 20
171.301725
 30
0.0
 10
79.537518
 20
165.620941
 30
0.0
  0
SPLINE
  5
195
100
AcDbEntity
  8
0
 62
7
100
AcDbSpline
 70
8
 71
3
 72
8
 73
4
 74
0
 40
0
 40
0
 40
0
 40
0
 40
1
 40
1
 40
1
 40
1
 10
62.240460
 20
177.281665
 30
0.0
 10
61.541607
 20
179.002164
 30
0.0
 10
60.642376
 20
180.199492
 30
0.0
 10
59.136014
 20
181.081790
 30
0.0
  0
SPLINE
  5
196
100
AcDbEntity
  8
0
 62
7
100
AcDbSpline
 70
8
 71
3
 72
8
 73
4
 74
0
 40
0
 40
0
 40
0
 40
0
 40
1
 40
1
 40
1
 40
1
 10
59.136014
 20
181.081790
 30
0.0
 10
57.835321
 20
180.823556
 30
0.0
 10
56.700787
 20
180.163156
 30
0.0
 10
55.672792
 20
179.263219
 30
0.0
  0
SPLINE
  5
197
100
AcDbEntity
  8
0
 62
7
100
AcDbSpline
 70
8
 71
3
 72
8
 73
4
 74
0
 40
0
 40
0
 40
0
 40
0
 40
1
 40
1
 40
1
 40
1
 10
55.672792
 20
179.263219
 30
0.0
 10
56.664804
 20
182.696808
 30
0.0
 10
58.079444
 20
185.817834
 30
0.0
 10
60.694587
 20
188.743422
 30
0.0
  0
SPLINE
  5
198
100
AcDbEntity
  8
0
 62
7
100
AcDbSpline
 70
8
 71
3
 72
8
 73
4
 74
0
 40
0
 40
0
 40
0
 40
0
 40
1
 40
1
 40
1
 40
1
 10
60.694587
 20
188.743422
 30
0.0
 10
62.200596
 20
184.613450
 30
0.0
 10
62.383688
 20
181.570387
 30
0.0
 10
62.240460
 20
177.281665
 30
0.0
  0
SPLINE
  5
199
100
AcDbEntity
  8
0
 62
7
100
AcDbSpline
 70
8
 71
3
 72
8
 73
4
 74
0
 40
0
 40
0
 40
0
 40
0
 40
1
 40
1
 40
1
 40
1
 10
65.969676
 20
156.631452
 30
0.0
 10
67.722277
 20
172.404157
 30
0.0
 10
68.553775
 20
183.097563
 30
0.0
 10
63.675914
 20
199.226573
 30
0.0
  0
SPLINE
  5
19a
100
AcDbEntity
  8
0
 62
7
100
AcDbSpline
 70
8
 71
3
 72
8
 73
4
 74
0
 40
0
 40
0
 40
0
 40
0
 40
1
 40
1
 40
1
 40
1
 10
63.675914
 20
199.226573
 30
0.0
 10
52.539418
 20
188.270347
 30
0.0
 10
47.702126
 20
176.989918
 30
0.0
 10
47.551490
 20
163.748396
 30
0.0
  0
SPLINE
  5
19b
100
AcDbEntity
  8
0
 62
7
100
AcDbSpline
 70
8
 71
3
 72
8
 73
4
 74
0
 40
0
 40
0
 40
0
 40
0
 40
1
 40
1
 40
1
 40
1
 10
47.551490
 20
163.748396
 30
0.0
 10
51.688870
 20
168.847449
 30
0.0
 10
53.741685
 20
170.381680
 30
0.0
 10
58.053691
 20
173.832555
 30
0.0
  0
SPLINE
  5
19c
100
AcDbEntity
  8
0
 62
7
100
AcDbSpline
 70
8
 71
3
 72
8
 73
4
 74
0
 40
0
 40
0
 40
0
 40
0
 40
1
 40
1
 40
1
 40
1
 10
58.053691
 20
173.832555
 30
0.0
 10
61.774087
 20
168.622376
 30
0.0
 10
64.424861
 20
163.057656
 30
0.0
 10
65.969676
 20
156.631452
 30
0.0
  0
SPLINE
  5
19d
100
AcDbEntity
  8
0
 62
7
100
AcDbSpline
 70
8
 71
3
 72
8
 73
4
 74
0
 40
0
 40
0
 40
0
 40
0
 40
1
 40
1
 40
1
 40
1
 10
37.610911
 20
177.769557
 30
0.0
 10
38.683356
 20
184.673423
 30
0.0
 10
39.334232
 20
194.647868
 30
0.0
 10
35.837496
 20
199.532079
 30
0.0
  0
SPLINE
  5
19e
100
AcDbEntity
  8
0
 62
7
100
AcDbSpline
 70
8
 71
3
 72
8
 73
4
 74
0
 40
0
 40
0
 40
0
 40
0
 40
1
 40
1
 40
1
 40
1
 10
35.837496
 20
199.532079
 30
0.0
 10
41.253344
 20
200.067596
 30
0.0
 10
48.569607
 20
202.672156
 30
0.0
 10
53.902905
 20
205.568464
 30
0.0
  0
SPLINE
  5
19f
100
AcDbEntity
  8
0
 62
7
100
AcDbSpline
 70
8
 71
3
 72
8
 73
4
 74
0
 40
0
 40
0
 40
0
 40
0
 40
1
 40
1
 40
1
 40
1
 10
53.902905
 20
205.568464
 30
0.0
 10
51.396770
 20
200.260566
 30
0.0
 10
50.639708
 20
191.260141
 30
0.0
 10
50.594200
 20
183.951286
 30
0.0
  0
SPLINE
  5
1a0
100
AcDbEntity
  8
0
 62
7
100
AcDbSpline
 70
8
 71
3
 72
8
 73
4
 74
0
 40
0
 40
0
 40
0
 40
0
 40
1
 40
1
 40
1
 40
1
 10
50.594200
 20
183.951286
 30
0.0
 10
48.362173
 20
186.076774
 30
0.0
 10
45.669772
 20
190.167587
 30
0.0
 10
44.503135
 20
193.571542
 30
0.0
  0
SPLINE
  5
1a1
100
AcDbEntity
  8
0
 62
7
100
AcDbSpline
 70
8
 71
3
 72
8
 73
4
 74
0
 40
0
 40
0
 40
0
 40
0
 40
1
 40
1
 40
1
 40
1
 10
44.503135
 20
193.571542
 30
0.0
 10
43.652940
 20
187.705902
 30
0.0
 10
43.619779
 20
182.123896
 30
0.0
 10
44.350735
 20
176.093862
 30
0.0
  0
SPLINE
  5
1a2
100
AcDbEntity
  8
0
 62
7
100
AcDbSpline
 70
8
 71
3
 72
8
 73
4
 74
0
 40
0
 40
0
 40
0
 40
0
 40
1
 40
1
 40
1
 40
1
 10
44.350735
 20
176.093862
 30
0.0
 10
41.538389
 20
172.712485
 30
0.0
 10
37.385839
 20
168.695049
 30
0.0
 10
33.695781
 20
166.795692
 30
0.0
  0
SPLINE
  5
1a3
100
AcDbEntity
  8
0
 62
7
100
AcDbSpline
 70
8
 71
3
 72
8
 73
4
 74
0
 40
0
 40
0
 40
0
 40
0
 40
1
 40
1
 40
1
 40
1
 10
33.695781
 20
166.795692
 30
0.0
 10
32.081822
 20
177.160662
 30
0.0
 10
31.174477
 20
181.413754
 30
0.0
 10
28.560744
 20
189.375248
 30
0.0
  0
SPLINE
  5
1a4
100
AcDbEntity
  8
0
 62
7
100
AcDbSpline
 70
8
 71
3
 72
8
 73
4
 74
0
 40
0
 40
0
 40
0
 40
0
 40
1
 40
1
 40
1
 40
1
 10
28.560744
 20
189.375248
 30
0.0
 10
30.996676
 20
185.063242
 30
0.0
 10
34.661687
 20
180.979131
 30
0.0
 10
37.610911
 20
177.769557
 30
0.0
  0
LWPOLYLINE
  5
1a5
100
AcDbEntity
  8
0
 62
7
100
AcDbPolyline
 90
2
 70
0
 10
106.790677
 20
217.805274
 30
0.0
 10
110.077510
 20
216.739179
 30
0.0
  0
ENDSEC
  0
SECTION
  2
OBJECTS
  0
DICTIONARY
  5
C
330
0
100
AcDbDictionary
  3
ACAD_GROUP
350
D
  3
ACAD_MLINESTYLE
350
17
  0
DICTIONARY
  5
D
330
C
100
AcDbDictionary
  0
DICTIONARY
  5
1A
330
C
100
AcDbDictionary
  0
DICTIONARY
  5
17
330
C
100
AcDbDictionary
  3
STANDARD
350
18
  0
DICTIONARY
  5
19
330
C
100
AcDbDictionary
  0
ENDSEC
  0
EOF
